» » »

Der Lezte Kuss Tabs (ver.1)

Artists:  A B C D E F G H I J K L M N O P Q R S T U V W X Y Z # 

Der Lezte Kuss Tabs (ver.1)

Die Toten Hosen
Rating:
0/5 (0 votes)

Hard to play? Try these video lessons and learn fast.
                -----------------------------------------------------------------------------
			     DER LETZTE KUSS - Die Toten Hosen
-----------------------------------------------------------------------------

Tuning: drop down 1/2 step

Intro
   Em		G      D        Em	      G      D
e--0-----0------3------2---------0-----0------3------2-------|
B----0-----0------3------3---------0-----0------3------3-----|
G------0-----0------0------2---------0-----0------0------2---|
D----------------------0-----------------------------0-------|
A------------------------------------------------------------|
E--0------------3----------------0------------3--------------|


Verse
   Em		G      D        Em	      G      D
e--0-----0------3------2---------0-----0------3------2-------|
B----0-----0------3------3---------0-----0------3------3-----|
G------0-----0------0------2---------0-----0------0------2---|
D----------------------0-----------------------------0-------|
A------------------------------------------------------------|
E--0------------3----------------0------------3--------------|

   Em		G      D        Em	      G      D
e--0-----0------3------2---------0-----0------3------2-------|
B----0-----0------3------3---------0-----0------3------3-----|
G------0-----0------0------2---------0-----0------0------2---|
D----------------------0-----------------------------0-------|
A------------------------------------------------------------|
E--0------------3----------------0------------3--------------|

   Em
e--0-----0------|
B----0-----0----|
G------0-----0--|
D---------------|
A---------------|
E--0------------|

   C            D                Em
e--0-----0------2------2---------0-----0------0------0-------|
B----1-----1------3------3---------0-----0------0------0-----|
G------2-----2------2------2---------0-----0------0------0---|
D---------------0--------------------------------------------|
A--3---------------------------------------------------------|
E--------------------------------0---------------------------|

   C            D                Em
e--0-----0------2------2---------0-----0------0------0-------|
B----1-----1------3------3---------0-----0------0------0-----|
G------2-----2------2------2---------0-----0------0------0---|
D---------------0--------------------------------------------|
A--3---------------------------------------------------------|
E--------------------------------0---------------------------|

   Em		G      D        Em	      G      D
e--0-----0------3------2---------0-----0------3------2-------|
B----0-----0------3------3---------0-----0------3------3-----|
G------0-----0------0------2---------0-----0------0------2---|
D----------------------0-----------------------------0-------|
A------------------------------------------------------------|
E--0------------3----------------0------------3--------------|

   Em		G      D        Em	      G      D
e--0-----0------3------2---------0-----0------3------2-------|
B----0-----0------3------3---------0-----0------3------3-----|
G------0-----0------0------2---------0-----0------0------2---|
D----------------------0-----------------------------0-------|
A------------------------------------------------------------|
E--0------------3----------------0------------3--------------|

   C            D
e--0-----0------2------2-------|
B----1-----1------3------3-----|
G------2-----2------2------2---|
D---------------0--------------|
A--3---------------------------|
E------------------------------|

   G            D                Am           C
e--3-----3------2------2---------0-----0------0------0-------|
B----3-----3------3------3---------1-----1------1------1-----|
G------0-----0------2------2---------2-----2------2------2---|
D---------------0--------------------------------------------|
A--------------------------------0------------3--------------|
E--3---------------------------------------------------------|

   G            D                Am           C
e--3-----3------2------2---------0-----0------0------0-------|
B----3-----3------3------3---------1-----1------1------1-----|
G------0-----0------2------2---------2-----2------2------2---|
D---------------0--------------------------------------------|
A--------------------------------0------------3--------------|
E--3---------------------------------------------------------|

   G            D                Am           C
e--3-----3------2------2---------0-----0------0------0-------|
B----3-----3------3------3---------1-----1------1------1-----|
G------0-----0------2------2---------2-----2------2------2---|
D---------------0--------------------------------------------|
A--------------------------------0------------3--------------|
E--3---------------------------------------------------------|

   Em		G      D        Em	      G      D
e--0-----0------3------2---------0-----0------3------2-------|
B----0-----0------3------3---------0-----0------3------3-----|
G------0-----0------0------2---------0-----0------0------2---|
D----------------------0-----------------------------0-------|
A------------------------------------------------------------|
E--0------------3----------------0------------3--------------|

   Em		G      D        Em	      G      D
e--0-----0------3------2---------0-----0------3------2-------|
B----0-----0------3------3---------0-----0------3------3-----|
G------0-----0------0------2---------0-----0------0------2---|
D----------------------0-----------------------------0-------|
A------------------------------------------------------------|
E--0------------3----------------0------------3--------------|

   Em		G      D        Em	      G      D
e--0-----0------3------2---------0-----0------3------2-------|
B----0-----0------3------3---------0-----0------3------3-----|
G------0-----0------0------2---------0-----0------0------2---|
D----------------------0-----------------------------0-------|
A------------------------------------------------------------|
E--0------------3----------------0------------3--------------|

   C            D
e--0-----0------2------2-------|
B----1-----1------3------3-----|
G------2-----2------2------2---|
D---------------0--------------|
A--3---------------------------|
E------------------------------|

   G            D                Am           C
e--3-----3------2------2---------0-----0------0------0-------|
B----3-----3------3------3---------1-----1------1------1-----|
G------0-----0------2------2---------2-----2------2------2---|
D---------------0--------------------------------------------|
A--------------------------------0------------3--------------|
E--3---------------------------------------------------------|

   G            D                Am           C
e--3-----3------2------2---------0-----0------0------0-------|
B----3-----3------3------3---------1-----1------1------1-----|
G------0-----0------2------2---------2-----2------2------2---|
D---------------0--------------------------------------------|
A--------------------------------0------------3--------------|
E--3---------------------------------------------------------|

   G            D                Am           C
e--3-----3------2------2---------0-----0------0------0-------|
B----3-----3------3------3---------1-----1------1------1-----|
G------0-----0------2------2---------2-----2------2------2---|
D---------------0--------------------------------------------|
A--------------------------------0------------3--------------|
E--3---------------------------------------------------------|

   G            D                Am           C
e--3-----3------2------2---------0-----0------0------0-------|
B----3-----3------3------3---------1-----1------1------1-----|
G------0-----0------2------2---------2-----2------2------2---|
D---------------0--------------------------------------------|
A--------------------------------0------------3--------------|
E--3---------------------------------------------------------|

   Em		G      D        Em	      G      D
e--0-----0------3------2---------0-----0------3------2-------|
B----0-----0------3------3---------0-----0------3------3-----|
G------0-----0------0------2---------0-----0------0------2---|
D----------------------0-----------------------------0-------|
A------------------------------------------------------------|
E--0------------3----------------0------------3--------------|


************************************

| /   slide up
| \   slide down
| h   hammer-on
| p   pull-off
| ~   vibrato
| +   harmonic
| x   Mute note
| b   Bend
| pb  Pre-bend
| br  Bend release
| pbr Pre-bend release
| brb Bend release bend

************************************
            
Hard to play? Try these video lessons and learn fast. | Correct




comments powered by Disqus
↑ Back to top | Tablatures and chords are parodies/interpretations of the original songs. You may use it for private study, scholarship, research or language learning purposes only