» » »

Die Toten Hosen, Der Letzte Kuss Tabs (ver.1)

Artists:  A B C D E F G H I J K L M N O P Q R S T U V W X Y Z # 

Der Letzte Kuss Tabs (ver.1)

Die Toten Hosen Tabs
Rating:
5/5 (2 votes)
Der Letzte Kuss lessons Tabs too difficult? Try these video lessons and learn fast
                	titel: 		der letzte kuss
	interpret: 	die toten hosen
	track:	- 09 -

--------------------------------------------------------------------------------
	Tuning: FULL STEP DOWN [D-A-F-C-G-e]

	[riff1]					[riff2]
	E|-0-----|-0-----|-3-----|-2------|	E|-0-----|-0-----|
	H|---0---|---0---|---3---|---3----|	H|---0---|---0---|
	G|-----0-|-----0-|-----0-|-----2--|	G|-----0-|-----0-|
	D|-------|-------|-------|-0------|	D|-------|-------|
	A|-------|-------|-------|--------|	A|-------|-------|
	e|-0-----|-------|-3-----|--------|	e|-0-----|-------|

	[riff3]					[C*]
	E|-0-----|-0-----|-2-----|-2-----|	E|-0-----|
	H|---1---|---1---|---3---|---3---|	H|-1-----|
	G|-----0-|-----0-|-----2-|-----2-|	G|-0-----|
	D|-------|-------|-0-----|-0-----|	D|-2-----|
	A|-3-----|-------|-------|-------|	A|-3-2-0-|
	e|-------|-------|-------|-------|	e|-------|
--------------------------------------------------------------------------------
	INTRO: 2x [riff1]	

	STROPHE1:
	irgendwann kommt für jeden der tag,
	an dem man für alles bezahlt, 
	dann stehn' wir da...	
	denken, wie schön es mal war. [riff2]
	
	[riff3]						G
	bereuen unsere fehler, hätten gern alles anders gemacht,
						  2x [riff2]
	hätten all unsere boshaftigkeiten niemals getan.
	
	STROPHE2: [riff1]
	wir leben versteckt, wischen all unsere spuren weg. 
	vor den anderen und vor uns selbst.
	damit kein mensch jemals sieht, 
		            [riff3]
	wer wir in wahrheit sind.
	
	CHORUS:  G   D   Am   C*
	wo ist der ort für den ehrlichsten kuss
	ich weiss, dass ich ihn für uns finden muss
	auf 'ner strasse im regen, auf 'nem berg nah beim mond
	oder kann man ihn nur vom totenbett holen.
	Em			 D
	wo ist der ort für einen ehrlichen kuss,
	Am		          C*
	den einzigen, den ich dir noch geben muss.

	2x [riff1]

	STROPHE3: [riff1]
	all denen, die uns am nächsten steh'n, 
	tun wir am liebsten weh, 
	und die	frage warum das so ist, 
				[riff3]
	bleibt unser leben lang steh'n

	CHORUS:  G   D   Am   C*
	wann ist die zeit für einen ehrlichen kuss,
	der all unsere lügen auslöschen muss.
	gib' mir die zeit für einen ehrlichen kuss.
	so wollen wir uns küssen, wenigstens am schluss.
	
	Em			   D
	es wird ein kuss sein, der alles verzeiht,
	    Am			  C
	der alles vergibt und uns beide befreit.
	   Em/G			       D
	du musst ihn mir schenken, ich bin zwar ein dieb,
	     F						       Em/G
	doch gestohlen ist er wertlos, und dann brauch ich ihn nicht.
	
	2x riff1 - ende
	
--------------------------------------------------------------------------------

thx&have_fun::sk.egal
            

comments powered by Disqus
↑ Back to top | Die Toten Hosen Tabs for Der Letzte Kuss. Lyrics for acoustic guitar and electric guitar. Tablatures and chords are parodies/interpretations of the original songs. You may use it for private study, scholarship, research or language learning purposes only