» » »

Daydreaming Tabs (ver.1)

Artists:  A B C D E F G H I J K L M N O P Q R S T U V W X Y Z # 

Daydreaming Tabs (ver.1)

Die Toten Hosen
Rating:
0/5 (0 votes)

Hard to play? Try these video lessons and learn fast.
                -------------------------------------------------------------------------------
-------------------------------------------------------------------------------


Intro: (clean)

                2X                                        and then...

e|------------------------------------|-----------------------------------------|
B|------------------------------------|-----------------------------------------|
G|-11--11--11--11-----12--12--12--12--|-11--11--11--11-----10--10----9--9--9--9-|
D|-11--11--11--11-----12--12--12--12--|-11--11--11--11-----10--10----9--9--9--9-|
A|-9---9---9---9------10--10--10--10--|-9---9---9---9------8---8-----7--7--7--7-|
E|------------------------------------|-----------------------------------------|


Bridge: (small distortion)                            Verse:

          2X
"Hey!"       "Wake up!"                    "You've gotta throw back..."
e|-----------------------|      |-----------------------------| |-------|
B|-----------------------|      |-----------------------------| |-------|
G|-7----------7-----7----|  =)  |----------------9------7-----| |---9---|<-play
D|-7--7--5----7--7--7----|      |--9------7------9------7-----| |---9---|before
A|-5--7--5----5--7--5----|      |--9------7------7------5-----| |---7---|chorus
E|----5--3-------5-------|      |--7------5-------------------| |-------|


Chorus:

     "...gonna change..."          "...life away..."
e|---------------------------------------------------------|
B|---------------------------------------------------------|
G|-7-----9--7--9----------------7-----9--7-----------------|
D|-7--9--9--7--9----------------7--9--9--7-----------------|
A|-5--9--7--5--7----------------5--9--7--5-----------------|
E|----7----------------------------7-----------------------|



Now there are two guitars playing basically the same thing, same 
as the intro,but one uses a small distortion.
Then the same verse up there, and the chorus ;)


Here's the solo:

e|------10------10--14--10----10~--10-9-7------------------------------------|
B|----8-------8------------12-------------10-8-7----------10-8---------------|
G|-5/7------7------------------------------------9-6h7--8--------------------|
D|-----------------------------------------------------9---------------------|
A|---------------------------------------------------------------------------|
E|---------------------------------------------------------------------------|

e|------10------10--14--10----10~--14-10----10----------------------14-------|
B|----8-------8------------12------------12----12-10-------------------------|
G|-5/7------7----------------------------------------12-11----11-9-----------|
D|--------------------------------------------------------12-9--9------------|
A|---------------------------------------------------------------------------|
E|---------------------------------------------------------------------------|


Support Die Toten Hosen, buy their album. \o/


| /  slide up
| \  slide down
| h  hammer-on
| p  pull-off
| ~  vibrato
| +  harmonic
| x  Mute note
===============================================================================
            
Hard to play? Try these video lessons and learn fast. | Correct




comments powered by Disqus
↑ Back to top | Tablatures and chords are parodies/interpretations of the original songs. You may use it for private study, scholarship, research or language learning purposes only