» » »

Die Toten Hosen, Cocane In My Brian Tabs (ver.1)

Artists:  A B C D E F G H I J K L M N O P Q R S T U V W X Y Z # 

Cocane In My Brian Tabs (ver.1)

Die Toten Hosen Tabs
 Rating:
4/5 (4 votes)
Cocane In My Brian lessons Tabs too difficult? Try these video lessons and learn fast
                well....... this is "Cocain in my brian" from "die Toten Hosen"!! it´s my favourite
song of the album.



Intro
                                    ey jil...  
e----------------------------------|-------|-----------|
B----------------------------------|-------|-----------|
G----------------------------------|---5---|---55-33---|
D----------------------------------|---5---|---55-33---|
A-----8/10----6/8----3/5----1/3----|---3---|---33-11---|
E---8-------6------3------1--------|-------|-----------|



e----------------------------------------|
B----------------------------------------|
G---333-3--5-5--8--5---333-3--5-5--3--5--|
D---333-3--5-5--8--5---333-3--5-5--3--5--|
A---111-1--3-3--6--3---111-1--3-3--1--3--|
E----------------------------------------|


Verse

e----------------------------------------|
B----------------------------------------|
G---333-3--5-5--8--5---333-3--5-5--3--5--|
D---333-3--5-5--8--5---333-3--5-5--3--5--|
A---111-1--3-3--6--3---111-1--3-3--1--3--|
E----------------------------------------|
p.m.......................................

before Chorus/after Chorus

e----------------------------------|
B----------------------------------|
G----------------------------------|
D----------------------------------|
A-----8/10----6/8----3/5----1/3----|
E---8-------6------3------1--------|



Chorus

e-----------------------------------------|
B-----------------------------------------|
G---5-5-x-x-x-x-5--8---5-5-x-x-x-x-5--3---|
D---5-5-x-x-x-x-5--8---5-5-x-x-x-x-5--3---|
A---3-3-x-x-x-x-3--6---3-3-x-x-x-x-3--1---|
------------------------------------------|


ok.... this is the song.listen to the song to know when u hav to play the parts. 
i love it!!!!! i hope u enjoy it.
for corrections or comments: 
            
Submit corrections

comments powered by Disqus
↑ Back to top | Die Toten Hosen Tabs for Cocane In My Brian. Lyrics for acoustic guitar and electric guitar. Tablatures and chords are parodies/interpretations of the original songs. You may use it for private study, scholarship, research or language learning purposes only