>
 >
BöSer Wolf 1

BöSer Wolf 1 Guitar Tabs

Die Toten Hosen - BöSer Wolf 1 chords, tabs, tablatures, lyrics

Guitar lessons | Add/correct | Request | Top 50 tabs Artists:  A B C D E F G H I J K L M N O P Q R S T U V W X Y Z 0-9

BöSer Wolf 1 Guitar Tabs – Die Toten Hosen

CD, Sheet music, Poster

Do you like BöSer Wolf 1? Share with your friends now
ChordsChords v2TabsTabs v2
Gtr.1

Strophe:  2x(A  Cism  D  A  G  E)
Chorus:  2x(D  Fism  Bm  Cism  D  E)
Solo:  2x(Fism  Cism  Fism  A  D  A  E)
Outro:  D  Fism  Bm  Cism  D  E  A  (ab: Dass sie keinem ein sterbens...)

Gtr.2

Intro [0:00 - 0:16]                     |1. |2.
|----------------------------4-5-------------------|
|O--7---5>b(7)>5----------7------5--7-6------5----O|
|----------------------------------------4---------|
|--------------------------------------------------|
|O------------------------------------------------O|
|--------------------------------------------------|

Bridge [0:55 - 1:05] & 2x [2:18 - 2:38]
  A           Cism       D       A       G       E
|--------------------------------------------------------|
|----5--7-5------5--7-5------5------5-------5-------5----|
|---6-----------6-----------7-7----6-6-----6-6-----6-6---|
|-------------------------0------------------------------|
|-0-----------4------------------0---------------7-------|
|----------------------------------------3---------------|

Solo [1:42 - 2:38]
|--------------7--5------5---------------------------7--/5-|
|-7--7\------7--7-------7-7-5---5-4-----5-----------7-7----|
|------6------------------------------4---4p3p2-1----------|
|----------------------------------------------------------|
|----------------------------------------------------------|
|----------------------------------------------------------|

|-------979-------5----------------------------------------|
|-7---7-------7----7-5---8/9-------5-----------------------|
|--------------------------------4---4p3p2-1---------------|
|----------------------------------------------------------|
|----------------------------------------------------------|
|----------------------------------------------------------|





Comments


Popular Die Toten Hosen tabs & chords
Du Lebst Nur Einmal Chords
EisgeküHlter Bommerlunder Chords
Alles Ist Eins Tabs
Du Lebst Nur Einmal Tabs
Opel-Gang Tabs
Tage Wie Diese Tabs
35 Jahre Ukulele
Draussen Vor Der Tuer Ukulele
Katastrophen Kommando Ukulele
Zehn Kleine Jgermeister Ukulele


Song lyrics



↑ Back to top | Tablatures and chords are parodies/interpretations of the original songs. You may use it for private study, scholarship, research or language learning purposes only
© 2014 AZChords.com Contact us | Privacy policy | DMCA | Add/correct tabs | Request tabs | Top 50 tabs