» » »

Die Toten Hosen, Bonnie & Clyde Bass tabs (ver.1)

Artists:  A B C D E F G H I J K L M N O P Q R S T U V W X Y Z # 

Bonnie & Clyde Bass tabs (ver.1)

Die Toten Hosen Tabs
 Rating:
4.2/5 (5 votes)
Bonnie & Clyde lessons Tabs too difficult? Try these video lessons and learn fast
                Bonnie und Clyde

                                                             
   PART A   							4 mal
G||----------------|----------------|----------------|----------------|
D||----------------|----------------|----------------|----------------|
A||----------------|----------------|-3-3-3-3-3-3-3-3|5-5-5-5-5-5-5-5-|
E||-5-5-5-5-5-5-5-5|3-3-3-3-3-3-3-3-|----------------|----------------|

   PART B  
   Mit dir will ich…                                                            
G||----------------|----------------|----------------|----------------|
D||----------------|----------------|----------------|----------------|
A||----------------|----------------|-5-5-5-5-5-5-5-5|3--3--2--2------|
E||-5-5-5-5-5-5-5-5|1-1-1-1-1-1-1-1-|----------------|----------------|

G||----------------|----------------|----------------|----------------|
D||----------------|----------------|----------------|----------------|
A||----------------|----------------|--5-5-5-5-5-5-5-|5-7-------------|
E||-5-5-5-5-5-5-5-5|1-1-1-1-1-1-1-1-|----------------|----------------|

   CHORUS                                                        2 MAL  
   Leg deinen Kopf…
G||----------------|----------------|----------------|----------------|
D||----------------|----------------|----------------|----------------|
A||-3-3-3-3-3-3-3-3|----------------|----------------|----------------|
E||----------------|5-5-5-5-5-5-5-5-|-1-1-1-1-1-1-1-1|1-1-1-1-1-1-1-1-|

G||----------------|----------------|----------------|----------------|
D||----------------|----------------|----------------|----------------|
A||-3-3-3-3-3-3-3-3|----------------|----------------|----------------|
E||----------------|1-1-1-1-1-1-1-1-|-3-3-3-3-3-3-3-3|3-3-3-3-3-3-3-3-|

 PART A, B, CHORUS                                                                 

 GUITAR SOLO                                                             
G||----------------|----------------|----------------|----------------|
D||----------------|----------------|----------------|----------------|
A||----------------|------------2-3-|----------------|----------------|
E||-0--------------|----------------|----------------|-0--------------|

G||----------------|----------------|----------------|----------------|
D||----------------|----------------|----------------|----------------|
A||------------2-5-|----------------|----------------|----------------|
E||----------------|----------------|0-0-0-0-0-0-0-0-|0-0-0-0-0-0-0-0-|

G||----------------|----------------|----------------|----------------|
D||----------------|----------------|----------------|----------------|
A||----------------|----------------|-3-3-3-3-3-3-3-3|3-3-3-3-3-3-3-3-|
E||3-3-3-3-3-3-3-3-|3-3-3-3-3-3-3-3-|----------------|----------------|

G||----------------|----------------|
D||----------------|----------------|
A||5-5-5-5-5-5-5-5-|5-5-5-5-5-5-5-5-|
E||----------------|----------------|

   PART A    2 MAL, PART B, CHORUS
   END
G||----------------|----------------|----------------|----------------|
D||----------------|----------------|----------------|----------------|
A||--3-3-3-3-3-----|----------------|----------------|----------------|
E||----------------|--5-5-5-5-5-----|--1-1-1-1-1-----|--1-1-1-1-1-----|

G||----------------|----------------|----------------|----------------|
D||----------------|----------------|----------------|----------------|
A||--3-3-3-3-3-----|----------------|----------------|----------------|
E||----------------|--1-1-1-1-1-----|--3-3-3-3-3-----|--3-3-3-3-3-----|

G||----------------|----------------|----------------|----------------|
D||----------------|----------------|----------------|----------------|
A||--3-3-3-3-3-----|----------------|----------------|----------------|
E||----------------|--5-5-5-5-5-----|--1-1-1-1-1-----|--1-1-1-1-1-----|

G||----------------|----------------|----------------|----------------|
D||----------------|----------------|----------------|----------------|
A||3---------------|----------------|----------------|----------------|
E||----------------|1---------------|3---------------|----------------|
            
Submit corrections

comments powered by Disqus
↑ Back to top | Die Toten Hosen Bass for Bonnie & Clyde. Lyrics for acoustic guitar and electric guitar. Tablatures and chords are parodies/interpretations of the original songs. You may use it for private study, scholarship, research or language learning purposes only