» » »

Die Toten Hosen, Bayern Tabs (ver.2)

Artists:  A B C D E F G H I J K L M N O P Q R S T U V W X Y Z # 

Bayern Tabs (ver.2)

Die Toten Hosen Tabs
Rating:
0/5 (0 votes)
Bayern lessons Tabs too difficult? Try these video lessons and learn fast
                (Intro)
but I think it should be right. Please rate it!


     Q    E  Q    Q    Q       Q    E  Q    Q    Q       Q    E  Q    Q    Q     
E||----------0--------------|----------0--------------|----------0--------------|
B||---------------0---------|---------------0---------|---------------0---------|
G||-------------------------|-------------------------|-------------------------|
D||-------------------------|-------------------------|-------------------------|
A||-------7------------7----|-------7------------7----|-------7------------7----|
E||--0----------------------|--5----------------------|--0----------------------|


  Q    E  Q    Q    Q       Q    E  Q    Q    Q       Q    E  Q    Q    Q     
----------0--------------|----------0--------------|----------0--------------|
---------------0---------|---------------0---------|---------------0---------|
-------------------------|-------------------------|-------------------------|
-------------------------|-------------------------|-------------------------|
-------9------------9----|-------7------------7----|-------7------------7----|
--7----------------------|--0----------------------|--5----------------------|


  Q    E  Q    Q    Q       Q    E  Q    Q    Q       Q    E  Q    Q    Q     
----------0--------------|----------0--------------|----------0--------------|
---------------0---------|-------------------------|-------------------------|
-------------------------|---------------8---------|---------------6---------|
-------------------------|-------------------------|-------6------------6----|
-------7------------7----|-------9------------9----|--4----------------------|
--0----------------------|--7----------------------|-------------------------|


  Q    E  Q    Q    Q       Q    E  Q    Q    E     Q    E  Q    Q           
-------------------------|----------0------------|----------0--------------||
----------2--------------|---------------0-------|---------------4---------||
---------------2---------|-----------------------|-------------------------||
-------2------------2----|-------4------------4--|-------4-----------------||
--0----------------------|--2--------------------|--2----------------------||
-------------------------|-----------------------|-------------------------||




Duration Legend
---------------
W - whole
H - half
Q - quarter
E - 8th
S - 16th
T - 32nd
X - 64th
            
Submit corrections

comments powered by Disqus
↑ Back to top | Die Toten Hosen Tabs for Bayern. Lyrics for acoustic guitar and electric guitar. Tablatures and chords are parodies/interpretations of the original songs. You may use it for private study, scholarship, research or language learning purposes only