» » »

Alex Tabs (ver.1)

Artists:  A B C D E F G H I J K L M N O P Q R S T U V W X Y Z # 

Alex Tabs (ver.1)

Die Toten Hosen
Rating:
0/5 (0 votes)

Hard to play? Try these video lessons and learn fast.
                Hi I`m german so I write this in german!
So Hi jetzt kommt endlich mal was deutsches!

Fangt hiermit an!

E ----------------3-----------
A --3---1----3----------------
  ----------------------------
  ----------------------------
  ----------------------------
  ----------------------------



Chorus

  ---------3------------------
  --5--1------3---------------
  ----------------------------
  ----------------------------
  ----------------------------
  ----------------------------


Spielt das immer so dann kommt eine Stelle die wird so gespielt:

  -5---------5------------1--3
  ---1---3-------1----3-------
  ----------------------------
  ----------------------------
  ----------------------------
  ----------------------------

Fertig!
Sau einfach ne?
100Pro correkt ist alles!
            
Hard to play? Try these video lessons and learn fast. | Correct




comments powered by Disqus
↑ Back to top | Tablatures and chords are parodies/interpretations of the original songs. You may use it for private study, scholarship, research or language learning purposes only