» » »

Diesel, Sausalito Summer Night Tabs (ver.1)

Artists:  A B C D E F G H I J K L M N O P Q R S T U V W X Y Z # 

Sausalito Summer Night Tabs (ver.1)

Diesel Tabs
 Rating:
4/5 (4 votes)
Sausalito Summer Night lessons Tabs too difficult? Try these video lessons and learn fast
1
                Sausalito Summernight – Diesel


Main Riff:

|-------------------------|---------------------------|
|-------------------------|---------------------------|
|*----3--5-----3--5----2--|-3-----3-----3--5-----3---*| 
|-------------------------|-------------------3h5--3--|
|*-3--------3--------3----|----3-----3---------------*|
|-------------------------|---------------------------|


Intro: Play Main Riff 8 times

Verse:

|-------------------------|-------------1--1--1--x--|
|-5--5--5--x--5--5--5--x--|-3--3--3--x--1--1--1--x--|
|-5--5--5--x--5--5--5--x--|-3--3--3--x--2--2--2--x--|
|-5--5--5--x--5--5--5--x--|-3--3--3--x--3--3--3--x--|
|-3--3--3--x--3--3--3--x--|-1--1--1--x--3--3--3--x--|
|-------------------------|-------------1--1--1--x--|
    You left for Frisco in your rambler...


|-------------------------|-------------1--1--1--x--|
|-5--5--5--x--5--5--5--x--|-3--3--3--x--1--1--1--x--|
|-5--5--5--x--5--5--5--x--|-3--3--3--x--2--2--2--x--|
|-5--5--5--x--5--5--5--x--|-3--3--3--x--3--3--3--x--|
|-3--3--3--x--3--3--3--x--|-1--1--1--x--3--3--3--x--|
|-------------------------|-------------1--1--1--x--|
     The radiator runnin' dry...


|-------------------------|-------------1--1--1--x--|
|-5--5--5--x--5--5--5--x--|-3--3--3--x--1--1--1--x--|
|-5--5--5--x--5--5--5--x--|-3--3--3--x--2--2--2--x--|
|-5--5--5--x--5--5--5--x--|-3--3--3--x--3--3--3--x--|
|-3--3--3--x--3--3--3--x--|-1--1--1--x--3--3--3--x--|
|-------------------------|-------------1--1--1--x--|
     I'd never been much of a gambler...


|-------------------------|-------------1--1--1--x--|
|-5--5--5--x--5--5--5--x--|-3--3--3--x--1--1--1--x--|
|-5--5--5--x--5--5--5--x--|-3--3--3--x--2--2--2--x--|
|-5--5--5--x--5--5--5--x--|-3--3--3--x--3--3--3--x--|
|-3--3--3--x--3--3--3--x--|-1--1--1--x--3--3--3--x--|
|-------------------------|-------------1--1--1--x--|
     And had a preference to fly...




Main Riff 2 times



|-------------------------|-------------1--1--1--x--|
|-5--5--5--x--5--5--5--x--|-3--3--3--x--1--1--1--x--|
|-5--5--5--x--5--5--5--x--|-3--3--3--x--2--2--2--x--|
|-5--5--5--x--5--5--5--x--|-3--3--3--x--3--3--3--x--|
|-3--3--3--x--3--3--3--x--|-1--1--1--x--3--3--3--x--|
|-------------------------|-------------1--1--1--x--|
    You said forget about the airline...


|-------------------------|-------------1--1--1--x--|
|-5--5--5--x--5--5--5--x--|-3--3--3--x--1--1--1--x--|
|-5--5--5--x--5--5--5--x--|-3--3--3--x--2--2--2--x--|
|-5--5--5--x--5--5--5--x--|-3--3--3--x--3--3--3--x--|
|-3--3--3--x--3--3--3--x--|-1--1--1--x--3--3--3--x--|
|-------------------------|-------------1--1--1--x--|
    Let's take the car and save the fare...


|-------------------------|-------------1--1--1--x--|
|-5--5--5--x--5--5--5--x--|-3--3--3--x--1--1--1--x--|
|-5--5--5--x--5--5--5--x--|-3--3--3--x--2--2--2--x--|
|-5--5--5--x--5--5--5--x--|-3--3--3--x--3--3--3--x--|
|-3--3--3--x--3--3--3--x--|-1--1--1--x--3--3--3--x--|
|-------------------------|-------------1--1--1--x--|
    We blew a gasket on the grapevine...


|-------------------------|-------------1--1--1--x--|
|-5--5--5--x--5--5--5--x--|-3--3--3--x--1--1--1--x--|
|-5--5--5--x--5--5--5--x--|-3--3--3--x--2--2--2--x--|
|-5--5--5--x--5--5--5--x--|-3--3--3--x--3--3--3--x--|
|-3--3--3--x--3--3--3--x--|-1--1--1--x--3--3--3--x--|
|-------------------------|-------------1--1--1--x--|
    And eighty dollars on repair...


|-3--3--3--x--1-----------|-3--3--3--x--1-----------|
|-3--3--3--x--1-----5-----|-3--3--3--x--1-----5-----|
|-4--4--4--x--2-----5-----|-4--4--4--x--2-----5-----|
|-5--5--5--x--3-----5-----|-5--5--5--x--3-----5-----|
|-5--5--5--x--3-----3-----|-5--5--5--x--3-----3-----|
|-3--3--3--x--1-----------|-3--3--3--x--1-----------|
All aboard...
                         (Sausalito Summernight)




|-3--3--3--x--1-----------|-3-------------|
|-3--3--3--x--1-----5-----|-3-------------|
|-4--4--4--x--2-----5-----|-4-------------|
|-5--5--5--x--3-----5-----|-5-------------|
|-5--5--5--x--3-----3-----|-5-------------|
|-3--3--3--x--1-----------|-3-------------|
All aboard...



Main Riff 2 times


|-------------------------|-------------1--1--1--x--|
|-5--5--5--x--5--5--5--x--|-3--3--3--x--1--1--1--x--|
|-5--5--5--x--5--5--5--x--|-3--3--3--x--2--2--2--x--|
|-5--5--5--x--5--5--5--x--|-3--3--3--x--3--3--3--x--|
|-3--3--3--x--3--3--3--x--|-1--1--1--x--3--3--3--x--|
|-------------------------|-------------1--1--1--x--|
    Hot summer night in Sausalito...


|-------------------------|-------------1--1--1--x--|
|-5--5--5--x--5--5--5--x--|-3--3--3--x--1--1--1--x--|
|-5--5--5--x--5--5--5--x--|-3--3--3--x--2--2--2--x--|
|-5--5--5--x--5--5--5--x--|-3--3--3--x--3--3--3--x--|
|-3--3--3--x--3--3--3--x--|-1--1--1--x--3--3--3--x--|
|-------------------------|-------------1--1--1--x--|
     Can't stand the heat another mile...



|-------------------------|-------------1--1--1--x--|
|-5--5--5--x--5--5--5--x--|-3--3--3--x--1--1--1--x--|
|-5--5--5--x--5--5--5--x--|-3--3--3--x--2--2--2--x--|
|-5--5--5--x--5--5--5--x--|-3--3--3--x--3--3--3--x--|
|-3--3--3--x--3--3--3--x--|-1--1--1--x--3--3--3--x--|
|-------------------------|-------------1--1--1--x--|
     Let's drop a quarter in the meter...



|-------------------------|-------------1--1--1--x--|
|-5--5--5--x--5--5--5--x--|-3--3--3--x--1--1--1--x--|
|-5--5--5--x--5--5--5--x--|-3--3--3--x--2--2--2--x--|
|-5--5--5--x--5--5--5--x--|-3--3--3--x--3--3--3--x--|
|-3--3--3--x--3--3--3--x--|-1--1--1--x--3--3--3--x--|
|-------------------------|-------------1--1--1--x--|
     And hit the sidewalk for awhile...



|-------------------------|-------------1--1--1--x--|
|-5--5--5--x--5--5--5--x--|-3--3--3--x--1--1--1--x--|
|-5--5--5--x--5--5--5--x--|-3--3--3--x--2--2--2--x--|
|-5--5--5--x--5--5--5--x--|-3--3--3--x--3--3--3--x--|
|-3--3--3--x--3--3--3--x--|-1--1--1--x--3--3--3--x--|
|-------------------------|-------------1--1--1--x--|
    I'll have a burger and a root beer...


|-------------------------|-------------1--1--1--x--|
|-5--5--5--x--5--5--5--x--|-3--3--3--x--1--1--1--x--|
|-5--5--5--x--5--5--5--x--|-3--3--3--x--2--2--2--x--|
|-5--5--5--x--5--5--5--x--|-3--3--3--x--3--3--3--x--|
|-3--3--3--x--3--3--3--x--|-1--1--1--x--3--3--3--x--|
|-------------------------|-------------1--1--1--x--|
    You feed the heap some of the grape...


|-------------------------|-------------1--1--1--x--|
|-5--5--5--x--5--5--5--x--|-3--3--3--x--1--1--1--x--|
|-5--5--5--x--5--5--5--x--|-3--3--3--x--2--2--2--x--|
|-5--5--5--x--5--5--5--x--|-3--3--3--x--3--3--3--x--|
|-3--3--3--x--3--3--3--x--|-1--1--1--x--3--3--3--x--|
|-------------------------|-------------1--1--1--x--|
    A shot of premium to boot, dear...


|-------------------------|-------------1--1--1--x--|
|-5--5--5--x--5--5--5--x--|-3--3--3--x--1--1--1--x--|
|-5--5--5--x--5--5--5--x--|-3--3--3--x--2--2--2--x--|
|-5--5--5--x--5--5--5--x--|-3--3--3--x--3--3--3--x--|
|-3--3--3--x--3--3--3--x--|-1--1--1--x--3--3--3--x--|
|-------------------------|-------------1--1--1--x--|
    We'll get across the Golden Gate...


|-3--3--3--x--1-----------|-3--3--3--x--1-----------|
|-3--3--3--x--1-----5-----|-3--3--3--x--1-----5-----|
|-4--4--4--x--2-----5-----|-4--4--4--x--2-----5-----|
|-5--5--5--x--3-----5-----|-5--5--5--x--3-----5-----|
|-5--5--5--x--3-----3-----|-5--5--5--x--3-----3-----|
|-3--3--3--x--1-----------|-3--3--3--x--1-----------|
All aboard...
                         (Sausalito Summernight)



|-3--3--3--x--1-----------|-3--3--3--x--1-----------|
|-3--3--3--x--1-----5-----|-3--3--3--x--1-----5-----|
|-4--4--4--x--2-----5-----|-4--4--4--x--2-----5-----|
|-5--5--5--x--3-----5-----|-5--5--5--x--3-----5-----|
|-5--5--5--x--3-----3-----|-5--5--5--x--3-----3-----|
|-3--3--3--x--1-----------|-3--3--3--x--1-----------|
All aboard...
                         (Sausalito Summernight)


|-------------3-----1-----|-------------3-----1-----|
|-3--3--3--x--3-----1-----|-3--3--3--x--3-----1-----|
|-3--3--3--x--4-----2-----|-3--3--3--x--4-----2-----|
|-3--3--3--x--5-----3-----|-3--3--3--x--5-----3-----|
|-1--1--1--x--5-----3-----|-1--1--1--x--5-----3-----|
|-------------3-----1-----|-------------3-----1-----|
All aboard...
                         (Sausalito Summernight)


|-------------3-----1-----|-------3-----------------|
|-3--3--3--x--3-----1-----|-3-----3-----------------|
|-3--3--3--x--4-----2-----|-3-----4-----------------|
|-3--3--3--x--5-----3-----|-3-----5-----------------|
|-1--1--1--x--5-----3-----|-1-----5-----------------|
|-------------3-----1-----|-------3-----------------|
All aboard...


Main Riff 2 times



|-------------------------|-------------1--1--1--x--|
|-5--5--5--x--5--5--5--x--|-3--3--3--x--1--1--1--x--|
|-5--5--5--x--5--5--5--x--|-3--3--3--x--2--2--2--x--|
|-5--5--5--x--5--5--5--x--|-3--3--3--x--3--3--3--x--|
|-3--3--3--x--3--3--3--x--|-1--1--1--x--3--3--3--x--|
|-------------------------|-------------1--1--1--x--|
    Another mile or two to Frisco...


|-------------------------|-------------1--1--1--x--|
|-5--5--5--x--5--5--5--x--|-3--3--3--x--1--1--1--x--|
|-5--5--5--x--5--5--5--x--|-3--3--3--x--2--2--2--x--|
|-5--5--5--x--5--5--5--x--|-3--3--3--x--3--3--3--x--|
|-3--3--3--x--3--3--3--x--|-1--1--1--x--3--3--3--x--|
|-------------------------|-------------1--1--1--x--|
    Two hundred gallons from LA...


|-------------------------|-------------1--1--1--x--|
|-5--5--5--x--5--5--5--x--|-3--3--3--x--1--1--1--x--|
|-5--5--5--x--5--5--5--x--|-3--3--3--x--2--2--2--x--|
|-5--5--5--x--5--5--5--x--|-3--3--3--x--3--3--3--x--|
|-3--3--3--x--3--3--3--x--|-1--1--1--x--3--3--3--x--|
|-------------------------|-------------1--1--1--x--|
    The engine's stompin' like a disco...


|-------------------------|-------------1--1--1--x--|
|-5--5--5--x--5--5--5--x--|-3--3--3--x--1--1--1--x--|
|-5--5--5--x--5--5--5--x--|-3--3--3--x--2--2--2--x--|
|-5--5--5--x--5--5--5--x--|-3--3--3--x--3--3--3--x--|
|-3--3--3--x--3--3--3--x--|-1--1--1--x--3--3--3--x--|
|-------------------------|-------------1--1--1--x--|
    We oughta dump her in the bay...


|-3--3--3--x--1-----------|-3--3--3--x--1-----------|
|-3--3--3--x--1-----5-----|-3--3--3--x--1-----5-----|
|-4--4--4--x--2-----5-----|-4--4--4--x--2-----5-----|
|-5--5--5--x--3-----5-----|-5--5--5--x--3-----5-----|
|-5--5--5--x--3-----3-----|-5--5--5--x--3-----3-----|
|-3--3--3--x--1-----------|-3--3--3--x--1-----------|
All aboard...
                         (Sausalito Summernight)




|-3--3--3--x--1-----------|-5-------------|
|-3--3--3--x--1-----5-----|-5-------------|
|-4--4--4--x--2-----5-----|-6-------------|
|-5--5--5--x--3-----5-----|-7-------------|
|-5--5--5--x--3-----3-----|-7-------------|
|-3--3--3--x--1-----------|-5-------------|
All aboard...



Bass/synthesizer interlude... Guitar stays in A.


|-----------------------|-----------------------|
|-7---------------------|-7---------------------|
|-7---------------------|-7---------------------|
|-7---------------------|-7---------------------|
|-5---------------------|-5---------------------|
|-----------------------|-----------------------|
Cash in all the cheques   Straighten out the bank


|-----------------------|-----------------------|
|-7---------------------|-----------------------|
|-7---------------------|-----------------------|
|-7---------------------|-----------------------|
|-5---------------------|-----------------------|
|-----------------------|-----------------------|
Spend it on a Rambler with a wormhole in the tank


|-3---------------------|-3---------------------|
|-3---------------------|-3---------------------|
|-4---------------------|-4---------------------|
|-5---------------------|-5---------------------|
|-5---------------------|-5---------------------|
|-3---------------------|-3---------------------|
Look out over here,       What's that over there?


|-5---------3-----------|-2---------------------|
|-5---------3-----------|-2---------4-----------|
|-6---------4-----------|-3---------4-----------|
|-7---------5-----------|-4---------4-----------|
|-7---------5-----------|-4---------2-----------|
|-5---------3-----------|-2---------------------|
Can't afford a blowout cause we haven't got a spare...



Guitar Solo! I'm working on it; will post when finished.


|-3--3--3--x--1-----------|-3--3--3--x--1-----------|
|-3--3--3--x--1-----5-----|-3--3--3--x--1-----5-----|
|-4--4--4--x--2-----5-----|-4--4--4--x--2-----5-----|
|-5--5--5--x--3-----5-----|-5--5--5--x--3-----5-----|
|-5--5--5--x--3-----3-----|-5--5--5--x--3-----3-----|
|-3--3--3--x--1-----------|-3--3--3--x--1-----------|
All aboard...
                         (Sausalito Summernight)



|-3--3--3--x--1-----------|-3--3--3--x--1-----------|
|-3--3--3--x--1-----5-----|-3--3--3--x--1-----5-----|
|-4--4--4--x--2-----5-----|-4--4--4--x--2-----5-----|
|-5--5--5--x--3-----5-----|-5--5--5--x--3-----5-----|
|-5--5--5--x--3-----3-----|-5--5--5--x--3-----3-----|
|-3--3--3--x--1-----------|-3--3--3--x--1-----------|
All aboard...
                         (Sausalito Summernight)


|-------------3-----1-----|-------------3-----1-----|
|-3--3--3--x--3-----1-----|-3--3--3--x--3-----1-----|
|-3--3--3--x--4-----2-----|-3--3--3--x--4-----2-----|
|-3--3--3--x--5-----3-----|-3--3--3--x--5-----3-----|
|-1--1--1--x--5-----3-----|-1--1--1--x--5-----3-----|
|-------------3-----1-----|-------------3-----1-----|
All aboard...
                         (Sausalito Summernight)


|-------------3-----1-----|-------3-----------------|
|-3--3--3--x--3-----1-----|-3-----3-----------------|
|-3--3--3--x--4-----2-----|-3-----4-----------------|
|-3--3--3--x--5-----3-----|-3-----5-----------------|
|-1--1--1--x--5-----3-----|-1-----5-----------------|
|-------------3-----1-----|-------3-----------------|
All aboard...


Main Riff 3 times and then:

|-------------------------|------------1--------------|
|-------------------------|-3----------1--------------|
|-----3--5-----3--5----2--|-3----------2--------------| 
|-------------------------|-3----------3--------------|
|--3--------3--------3----|-1----------3--------------|
|-------------------------|------------1--------------|


|--------------------------|-------------1--1--1--x--|
|--5--5--5--x--5--5--5--x--|-3--3--3--x--1--1--1--x--|
|*-5--5--5--x--5--5--5--x--|-3--3--3--x--2--2--2--x--|
|--5--5--5--x--5--5--5--x--|-3--3--3--x--3--3--3--x--|
|*-3--3--3--x--3--3--3--x--|-1--1--1--x--3--3--3--x--|
|--------------------------|-------------1--1--1--x--|
    Hot summer night in Sausalito...          (Sausalito Summernight)


|-------------------------|-------------1--1--1--x--|
|-5--5--5--x--5--5--5--x--|-3--3--3--x--1--1--1--x--|
|-5--5--5--x--5--5--5--x--|-3--3--3--x--2--2--2--x-*|
|-5--5--5--x--5--5--5--x--|-3--3--3--x--3--3--3--x--|
|-3--3--3--x--3--3--3--x--|-1--1--1--x--3--3--3--x-*|
|-------------------------|-------------1--1--1--x--|
    Hot summer night in Sausalito...          (Sausalito Summernight)

Repeat and fade.
            
Submit corrections

comments powered by Disqus
↑ Back to top | Diesel Tabs for Sausalito Summer Night. Lyrics for acoustic guitar and electric guitar. 1 Tablatures and chords are parodies/interpretations of the original songs. You may use it for private study, scholarship, research or language learning purposes only