» » »

Diamond Rio, How Your Love Makes Me Feel Tabs (ver.1)

Artists:  A B C D E F G H I J K L M N O P Q R S T U V W X Y Z # 

How Your Love Makes Me Feel Tabs (ver.1)

Diamond Rio Tabs
 Rating:
4/5 (4 votes)
How Your Love Makes Me Feel lessons Tabs too difficult? Try these video lessons and learn fast
                How Your Love Makes Me Feel
                          by Diamond Rio

Album info:
-------------------------
-------------------------


Intro:
  N.C                                                    C        D
e-----------------------------------------------------------8-8-8---8-|
B-----------------------------------------------------------8-8-8---8-|
G-5-------5-------5-------5---5-5---------------5-5-5-----------------|
D-5-------4-------3-------3---4-5--4^5--4^5^4-3-3-4-5-5\10--------0---|
A-3-3-3-3---3-3-3---3-3-3---3-----------------------------------------|
E---------------------------------------------------------------------|
                          F    G         C                         
e-8----8-8-----8-----8-----------------------|
B-8^10-8-7-----6^8---6----1----3---------1---|
G-------------------------2p0--2^3^2-----0---|
D-----------7----------7-------------5-------|
A----------------------------------------3---|
E--------------------------------------------|                  
Verse 1:
C 
I'm no poet and I know it.
                         F
I don't use five dollar words.
                Am     
This might not sound like much compared
            G                        
to all the pretty things you heard.           C
e-------------------------------------------------|
B-------------------------------------------------|
G-------------------------------------------------|
D------------------------5---------0--------2-----| 
A------------------------------------3p0------3---|
E----------------------------------------3--------|
                      
    C
But here's how I'd explain it
          G/B        F
Since you brought it up.
          Am                       G    
It won't sound like no-body else's version of

love.
e----3---3-3---3-3-------------|
B------------------------------|
G----2^4-4-2h4-4-4p2p0-----0-0-|
D----------------------2-0-----| 
A------------------------------|
E------------------------------|
                  

Chorus 1:
           C*               D          
It's like just before dark, jump in the car,
F                            G        
Buy an ice cream and see how far
       C
We can drive before it melts
e--------------------------------------|
B------5-5-5-5---5---------------------|
G------------------------------2-------|
D----------------------------4---4-4---| 
A--------------------------------------|
E--------------------------------------|
                  
         F
Kind of feeling.              G
       (That's how your love makes me feel)
e--------------------------------|
B--------------------------------|
G--------------------------------|
D--------3p2h3--------------2\5--| 
A--------------------------------|
E--------------------------------|                 
C*                       D
Cow in the road and you swerve to the left
                  
F*                      G
Fate skips a beat and scares you to death

                        
e8---------8---------|--7-----7-------7h8--7---------|
B10--------10--------|-----------------------10p8-8--|
G10--------10--------|-------------------------------|
D10--------10--------|-------------------------------| 
A8---------8---------|-------------------------------|
E--------------------|-------------------------------|
                       1st Time only
         C                           F
And you laugh until you cry 
e-------------------------|--------------|-----------|
B-------------------------|-5------------|-----------|
G-------------------------|---2----------|-0----2----|
D-------------------------|-4---4-0-0h3--|---4-----0-| 
A-------------------------|--------------|-----------|
E-------------------------|--------------|-----------|
                           1st Time         2nd Time
F                     G
That's how your love makes me feel inside
                       
Instrumental Break:

  C     D               F            F         F     G        C
e-8-8-8-8--8----8-8-----8-----8---|----------|-------------------------|
B-8-8-8----8h10-8-----------------|----------|-------------------------|
G-------11--------11----10h12-10--|--5---5---|-5-----7-----------------|
D--------------------10-----------|--5h7-5h7-|-5h7p5-7h9p7\5--5--------| 
A---------------------------------|----------|----------------3--------|
E---------------------------------|----------|-------------------------|
                                   1st Time    2nd Time       It might not...               
Verse 2:
C                                                F
It might not be suitable for greeting cards and such
        Am                                
It's a true and honest feeling  
           G
And if you feel it half as much
e--------------------------------7-----7---5\3--|
B--------------------------------6h8---8---6\5--|
G-----------------------------------------------|
D-----------5-----------------------------------| 
A-5-h--7----------------------------------------|
E-----------------------------------------------|
                                          We could go..,
         C                                   G/B        F*
We could go through life together without a worry or a care.
e--------------------------------------------------------------8-|
B----------------------------------------------------------------|
G------------------------------------------------------10--------|
D----------------------------------------------------------------| 
A----------------------------------------------------------------|
E----------------------------------------------------------------|
                  
         Am                                           
Knowing deep down in our hearts that 
e---------5------------|
B----------------------|
G---5------------------|
D----------------------| 
A----------------------|
E----------------------|
           G      
We've got somethin' special here. 
e---------------------------------3-------------------------|
B-----------------------------------6p3p0-------------------|
G----------3------------------0-----------2h4p2p0------0-0--|
D----------5--------------------------------------2p0-------| 
A----------5------------------------------------------------|
E-----------------------------------------------------------|

Go to Chorus 1

2nd Instrumental Break:

                  That's how your love makes me feel.
e-------------------------------------------------------|
B-------------------------------------------------------|
G--5--5-----------5----------------------5--------------|
D--5--4-----------3----------------------3---------4-5--| 
A-------------------------------------------------------|
E-------------------------------------------------------|
                        Am
e---------------------------|
B---------------------------|
G---------------------------|
D-----------------5---------| 
A--4^5--4^5^4--3--3-4-5\7---|
E---------------------------|
                        I've always heard

Bridge:
Am
I've always heard
          G                                           
You can't put love into words
e--------------------------------10-----10-----10--10--|
B--------------------------------10h12--10h12--10------|
G--------------------------------------------------12--|
D------------------------------------------------------| 
A------------------------------------------------------|
E------------------------------------------------------|
                  


Chorus 2:Key Change to D
D                           E          
It's like just before dark, jump in the car,
G                    A        
Buy an ice cream and see how far
         D              E
W
            
Submit corrections

comments powered by Disqus
↑ Back to top | Diamond Rio Tabs for How Your Love Makes Me Feel. Lyrics for acoustic guitar and electric guitar. Tablatures and chords are parodies/interpretations of the original songs. You may use it for private study, scholarship, research or language learning purposes only