» » »

Loose Bass tabs (ver.1)

Artists:  A B C D E F G H I J K L M N O P Q R S T U V W X Y Z # 

Loose Bass tabs (ver.1)

Di
Rating:
0/5 (0 votes)

Hard to play? Try these video lessons and learn fast.
                Intro
G--------------------------------------|
D--------------------------------------|
A-2---------0--------2--------0--------|
E--------------------------------------|

Verse                                                x5
G------------------------------------------------------|
D----5--7--5-------5--7--5------5--7--5-------5--7--5--|
A-7------------7-7-----------7------------7-7----------|
E------------------------------------------------------|

Chorus
G------------------------------------|
D-9-9-9-9--7-7-7-7--9-9-9-9--7-7-7-7-|
A------------------------------------|
E------------------------------------|

Verse 2                                              x5
G------------------------------------------------------|
D----5--7--5-------5--7--5------5--7--5-------5--7--5--|
A-7------------7-7-----------7------------7-7----------|
E------------------------------------------------------|

Chorus 
G------------------------------------|
D-9-9-9-9--7-7-7-7--9-9-9-9--7-7-7-7-|
A------------------------------------|
E------------------------------------|

Bridge/Solo                                       
G------------------------------------------------------|
D----5--7--5-------5--7--5-----------------------------|
A-7------------7-7---------7-7-7-7-7-7-7-7-7-7-7-7-7-7-|
E------------------------------------------------------|

                                                     x2
G------------------------------------------------------|
D----5--7--5-------5--7--5------5--7--5-------5--7--5--|
A-7------------7-7-----------7------------7-7----------|
E------------------------------------------------------|

Final Chorus
G--------------------------------------|
D--------------------------------------|
A-2---------0--------2--------0--------|
E--------------------------------------|

Outro
G---------------------------------------------|
D----5--7--5-------5--7--5------5--7--5-------|
A-7------------7-7-----------7------------7---|
E---------------------------------------------|

****************************************************************************

This song is off the dvd "The Suburbia Sessions 1983" (FLIPSIDE)
            
Hard to play? Try these video lessons and learn fast. | Correct




comments powered by Disqus
↑ Back to top | Tablatures and chords are parodies/interpretations of the original songs. You may use it for private study, scholarship, research or language learning purposes only