» » »

Listen To Your Heart Metal Tabs (ver.1)

Artists:  A B C D E F G H I J K L M N O P Q R S T U V W X Y Z # 

Listen To Your Heart Metal Tabs (ver.1)

Dht
Rating:
5/5 (1 vote)

Hard to play? Try these video lessons and learn fast.
                this is a good way to rock it up!!!
do the intro first what ever way u please..

standerd tuning!
E------------------------------------------------------|
B------------------------------------------------------|x3
G------------------------------------------------------|
D--7-------------3----------------5-------------7------|let them ring
A--7-------------3----------------5-------------7------|
E--5-------------1----------------3-------------5------|
   i no thers    somthing in the  wake of your  smile
   i get a       notion from the  look in your  eyes , yeah
  You've built a love but that    love falls apart

E--------------------------------------------------|
B--------------------------------------------------|
G--------------------------------------------7-----|
D-----------------------------3--------------7-----|
A-----------------------------3--------------5-----|
E-----------------------------1--------------------|
    you little piece of heaven  turns to dark
E----------------------------------------------------------------------------|
B----------------------------------------------------------------------------|
G-----------------------------------------5-5-5-5----------------------------|
D------------------7--7-5-5--3------------5-5-5-5----5-----------------------|
A------------------7--7-7-7--3------------3-3-3-5----5-----------------------|
E------------------5--5-5-5--1-----------------------3-----------------------|
                      pmpmpm                pmpmpm
  listen to your heart      , when he's  calling for you,


E----------------------------------------------------------------------|
B----------------------------------------------------------------------|
G---------------------------------------------5-5-5-5------------------|
D-------------------7-7-7-7--3----------------5-5-5-5--5---------------|
A-------------------7-7-7-7--3----------------3-3-3-3--5---------------|
E-------------------5-5-5-5--1-------------------------3---------------|
                      pmpmpm                    pmpmpm
  listen to your heart ,   there's nothing  else you can do


E--------------------------------------------------------------|
B--------------------------------------------------------------|
G---------5-5-5-5----------------------5-----------------------|
D---------5-5-5-5--5---------3-3-3-3---5-----------------------|
A---------3-3-3-3--5---------3-3-3-3---3-----------------------|
E------------------3---------1-1-1-1---------------------------|
            pmpmpm             pmpmpm
I don't know.. ..going, and i don't know why

E----------------------------------------------------------------|
B----------------------------------------------------------------|
G----------------------------------------------------------------|
D-----------------------7-7-7-7--1----5-----------------------7--|
A-----------------------7-7-7-7--1----5-----------------------7--|strum last
E-----------------------5-5-5-5--3----3-----------------------5--|   chord
                          pmpmpm
  But listen to your heart,           before you tell him goodbye

repet all that for the next verse..


D5
And there are voices that want to be heard
Bm
So much to mention but you can't find the words
A5
The scent of magic
G5
The beauty that's been
A 5                    B5
when love was wilder ,than the wind

thats all for now u can mess around wif it if u want....
plese rate this is my first tab.. have fun
            
Hard to play? Try these video lessons and learn fast. | Correct




comments powered by Disqus
↑ Back to top | Tablatures and chords are parodies/interpretations of the original songs. You may use it for private study, scholarship, research or language learning purposes only