» » »

Devo, Mongoloid Tabs (ver.1)

Artists:  A B C D E F G H I J K L M N O P Q R S T U V W X Y Z # 

Mongoloid Tabs (ver.1)

Devo Tabs
 Rating:
4.6/5 (10 votes)
Mongoloid lessons Tabs too difficult? Try these video lessons and learn fast
                Standard tunning
Artist : Devo
Album : Q: Are We Not Men ?


Bass intro

Riff 1

e--------------------------------------|
B--------------------------------------|
G-4-4—-4---4—--7—-7--7-----------------|
D-4-4—-4---4—--7—-7--7-----------------|
A-2-2--2---2---5--5--5-----------------|
E--------------------------------------|
  mongoloid he was a mongoloid

Riff 2

e------------------------------------|
B------------------------------------|
G----------------------4-4-4-4-4-----|
D-5--5----5----7---7---4-4-4-4-4-----|
A-5--5----5----7---7---2-2-2-2-2-----|
E-3--3----3----5---5-----------------|
  happier than you and me

Riff 3

e------------------------------------|
B------------------------------------|
G-------7-7--------4-4---------------|
D-7---7-7-7-5----5-4-4---------------|
A-7---7-5-5-5----5-2-2---------------|
E-5---5-----3----3-------------------|
  and he    wore hat

Riff 4

e------------------------------------|
B------------------------------------|
G--------7-7-7--4--------------------|
D-7—-7---7-7-7—-4---7-7-7-7-7-7-7-7--|
A-7--7---5-5-5--2---7-7-7-7-7-7-7-7--|
E-5--5-------3------5-5-5-5-5-5-5-5--|
  so that    no one knew

1:mongoloid he was a mongoloid
2:happier than you and me
1:mongoloid he was a mongoloid
2:and it determined what he could see
1:mongoloid he was a mongoloid
2:one chromosome too many
1:mongoloid he was a mongoloid
2:and it determined what he could see
3:and he wore hat
3:and he had a job
3:and he brought home the bacon
4:so that no one knew
            
Submit corrections

comments powered by Disqus
↑ Back to top | Devo Tabs for Mongoloid. Lyrics for acoustic guitar and electric guitar. Tablatures and chords are parodies/interpretations of the original songs. You may use it for private study, scholarship, research or language learning purposes only