>
 >
War

War Guitar Tabs

Devin Townsend - War chords, tabs, tablatures, lyrics

Guitar lessons | Add/correct | Request | Top 50 tabs Artists:  A B C D E F G H I J K L M N O P Q R S T U V W X Y Z 0-9

War Guitar Tabs – Devin Townsend

CD, Sheet music, Poster

Do you like War? Share with your friends now
Tabs
Tuning (Low to high): CGCGCE


    Intro                               Riff A
-------------------------------------|--------------------------|-------|
-------------------------------------|--------------------------|-------|
-------------------------------------|--------------------------|-------|
-------------------------------------|--------------------------|-------|
-------------5--0--0--0--0--0--0--0--|--0--0--0--0--0--0--0--0--|-------|
----5--5--7-----0--0--0--0--0--0--0--|--0--0--0--0--0--0--0--0--|-------|


Riff B                     Riff C
------------------------|--------------------------|--------------------|
------------------------|--------------------------|--------------------|
------------------------|--------------------------|--------------------|
5-----------------------|--7-----------7-----------|--------------------|
3--0--0--0--0--0--0--0--|--5--0--0--0--5--0--0--0--|--------------------|
---0--0--0--0--0--0--0--|-----0--0--0-----0--0--0--|--------------------|


Riff D
------------------------|--------------------------|--------------------|
------------------------|--------------------------|--------------------|
------------------------|--------------------------|--------------------|
5-----7-----------------|--7-----7-----------------|--------------------|
3--0--5--0--0--0--0--0--|--5--0--5--0--0--0--0--0--|--------------------|
---0-----0--0--0--0--0--|-----0-----0--0--0--0--0--|--------------------|


Riff F                     Riff G
------------------------|--------------------------|--------------------|
------------------------|--------------------------|--------------------|
------------------------|--------------------------|--------------------|
7-----------------------|--8-----------8-----------|--------------------|
5--0--0--0--0--0--0--0--|--6--0--0--0--6--0--0--0--|--------------------|
---0--0--0--0--0--0--0--|-----0--0--0-----0--0--0--|--------------------|


Riff H                     Riff I
------------------------|--------------------------|--------------------|
------------------------|--------------------------|--------------------|
------------------------|--------------------------|--------------------|
4-----------------------|--7-----------5-----------|--------------------|
2--0--5--5--5--5--5--5--|--5--5--5--5--3--5--5--5--|--------------------|
---0--5--5--5--5--5--5--|-----5--5--5-----5--5--5--|--------------------|


Riff J                     Riff K      Riff E
------------------------|-----------|--------|--------|--------|--------|
------------------------|-----------|--------|--------|--------|--------|
------------------------|-----------|--------|--------|--------|--------|
7-----------------------|--4--5--6--|--7--5--|--4--5--|--7--5--|--------|
5--5--5--5--5--5--5--5--|--2--3--4--|--5--3--|--2--3--|--5--3--|--------|
---5--5--5--5--5--5--5--|-----------|--------|--------|--------|--------|


                                    Main Riff 1
---------------------------------|-----------------------------|--------|
---------------------------------|-----------------------------|--------|
---------------------------------|-----------------------------|--------|
7--7--7--7--7--7--7--7--7--------|-----------------------------|--------|
5--5--5--5--5--5--5--5--5--------|--5~~~--0--0--0--0--0--------|--------|
---------------------------5--7--|--------0--0--0--0--0--5--7--|--------|

---------------------------|--------------------|-----------------------|
---------------------------|--------------------|-----------------------|
---------------------------|--------------------|-----------------------|
---------------------------|--------------------|-----------------------|
5~~~--0--0--0--0--0--------|--6--------6--6--8--|-----------------------|
------0--0--0--0--0--5--7--|-----5--7-----------|-----------------------|


                           Main Riff 2
------------------------|--------------------------|--------------------|
------------------------|--------------------------|--------------------|
------------------------|--------------------------|--------------------|
------------------------|--------------------------|--------------------|
5--0--0--0--0--0--------|--2--5--5--5--5--5--------|--------------------|
---0--0--0--0--0--5--7--|-----5--5--5--5--5--5--7--|--------------------|

------------------------|--------------------|--------------------------|
------------------------|--------------------|--------------------------|
------------------------|--------------------|--------------------------|
------------------------|--------------------|--------------------------|
2--5--5--5--5--5--------|--5--------3--------|--------------------------|
---5--5--5--5--5--5--7--|-----5--7-----5--7--|--------------------------|

------------------------|--------------------------|--------------------|
------------------------|--------------------------|--------------------|
------------------------|--------------------------|--------------------|
------------------------|--------------------------|--------------------|
2--5--5--5--5--5--------|--5--5--5--5--5--5--------|--------------------|
---5--5--5--5--5--5--7--|-----5--5--5--5--5--5--7--|--------------------|

------------------------|--------------------|--------------|-----------|
------------------------|--------------------|--------------|-----------|
------------------------|--------------------|--------------|-----------|
------------------------|--------------------|-----4--5--6--|-----------|
2--5--5--5--5--5--------|--5--------3--------|--2--2--3--4--|-----------|
---5--5--5--5--5--5--7--|-----5--7-----5--7--|--------------|-----------|


Riff M                        Riff N
---------------------------|---------------------|----------------------|
---------------------------|---------------------|----------------------|
---------------------------|---------------------|----------------------|
7--7--7--7--7--7--7--7--7--|--7--7--7--9--9--11--|----------------------|
5--5--5--5--5--5--5--5--5--|--5--5--5--7--7--9---|----------------------|
---------------------------|---------------------|----------------------|


Riff O                                                Riff P
------------------------|--------------------------|--------------|-----|
------------------------|--------------------------|--------------|-----|
------------------------|--------------------------|--------------|-----|
------------------------|--------------------------|--------------|-----|
7--7--7--7--7--7--7--7--|--5--5--5--5--5--5--5--5--|--3--3--3--3--|-----|
7--7--7--7--7--7--7--7--|--5--5--5--5--5--5--5--5--|--3--3--3--3--|-----|


            Riff Q                     Riff R
---------|--------------------------|--------------------------|--------|
---------|--------------------------|--------------------------|--------|
---------|--------------------------|--------------------------|--------|
---------|--------------------------|--------------------------|--------|
2-----2--|--0--2--0--2--0--4--0--4--|--0--4--0--4--2--6--2--6--|--------|
2--0--2--|--0--2--0--2--0--4--0--4--|--0--4--0--4--2--6--2--6--|--------|


Riff S                              Riff T
---------------------------------|--------|-----------------------------|
---------------------------------|--------|-----------------------------|
---------------------------------|--------|-----------------------------|
---------------------------------|--------|-----------------------------|
8--8--8--8--8--8--8--8--8--8--7--|--1--3--|-----------------------------|
8--8--8--8--8--8--8--8--8--8--7--|--1--3--|-----------------------------|


Riff U
------------------------------|------------------|----------------------|
------------------------------|------------------|----------------------|
------------------------------|------------------|----------------------|
4--4--------4--4--------4--4--|------------------|----------------------|
2--2--1--3--2--2--1--3--2--2--|--1--3------2-----|----------------------|
------1--3--------1--3--------|--1--3--3^-----3--|----------------------|


Riff V               Riff W
------------------|--------------------------|--------------------------|
------------------|--------------------------|--------------------------|
------------------|--------------------------|--------------------------|
------------------|--7--7--------7--7--------|--------------------------|
1--3--3--4--5--6--|--5--5--4--6--5--5--4--6--|--------------------------|
1--3--3--4--5--6--|--------4--6--------4--6--|--------------------------|

------------------------|-----------------------------------------------|
------------------------|-----------------------------------------------|
------------------------|-----------------------------------------------|
7-----7-----7-----7-----|-----------------------------------------------|
5--6--5--6--5--6--5--6--|-----------------------------------------------|
---6-----6-----6-----6--|-----------------------------------------------|


Outro
7--5--7--7/9--5--5--4--5--7--0--0--0--7--5--7--7/9--5--5--4--5--7--0----|

---|--------------------------------------------------------------------|
0--|--------------------------------------------------------------------|
---|--------------------------------------------------------------------|
---|--------------------------------------------------------------------|
---|--------------------------------------------------------------------|
---|--------------------------------------------------------------------|

8--8-----8--10-----10--12-----12--10-----10--8-----8--8-----8--6--------|
------5---------5----------5----------5---------5--------4--------2-----|

|--------6--------------6--------|--------|-----------------------------|
|--2--4-----4--2--2--4-----4--2--|--2-----|-----------------------------|
|--------------------------------|-----3--|-----------------------------|
|--------------------------------|--------|-----------------------------|
|--------------------------------|--------|-----------------------------|
|--------------------------------|--------|-----------------------------|


This looong song goes like this...
Intro
Riff A x15
Riff B x2
Riff C
Riff B
Riff D
Riff C
Riff F x2
Riff G
Riff F x3
Riff G
Riff H x2
Riff I
Riff J
Riff H x2 (variation)
Riff I
Riff J
Riff K
RIff F x2
Riff G
Riff F
Riff E
Main Riff 1 x4
Main Riff 2
Main Riff 1
stop
Main Riff 1
Riff M x2
end of Main Riff 1
Main Riff 2
first half of Main Riff 1
Miff N
Riff O x3
Riff P
Riff Q x4
Riff R x4
Riff Q x2
Riss S Riff T
Riff U x5
Riff V
Riff W
Riff U
Riff U just bar 1
Riff V
Riff W
Riff U
Riff U just bar 1
RIff V
Riff W
Riff U
Riff U just bar 1
Riff V
Riff W continue bar 2 of riff
Outro





Comments


Popular Devin Townsend tabs & chords
Back Where We Belong Chords
Ih-Ah! Chords
Gaia Tabs
Hyperdrive 2 Tabs
Noisy Pink Bubbles Tabs
Numbered Tabs
Truth Tabs
Universe In A Ball Tabs
Ghost Ukulele
Ih-ah Ukulele


Song lyrics



↑ Back to top | Tablatures and chords are parodies/interpretations of the original songs. You may use it for private study, scholarship, research or language learning purposes only
© 2014 AZChords.com Contact us | Privacy policy | DMCA | Add/correct tabs | Request tabs | Top 50 tabs