» » »

Devin Townsend, Vampira Tabs (ver.1)

Artists:  A B C D E F G H I J K L M N O P Q R S T U V W X Y Z # 

Vampira Tabs (ver.1)

Devin Townsend Tabs
 Rating:
4/5 (4 votes)
Vampira lessons Tabs too difficult? Try these video lessons and learn fast
1
                Tuning: Standard



e|---------------------------------------------|
B|---------------------------------------------|
G|---------------------------------------------| x4
D|---------------------------------------------|
A|---------------------------------------------|
E|--0-0-0-0--0-0-0-0--0-0-0-0--0-0-0-0---------|



e|--------------------------------------------------------------------|
B|--------------------------------------------------------------------|
G|--------------------------------------------------------------------|
D|--------------------------------------------------------------------| x2
A|--10----------------10----9---7-9---6---3---3-2----6---3---3-2------|
E|------0-0-0-0-0-0-0-----0---0-----0---0---0------0---0---0----------|



e|-------------------------------------------------------------|
B|-------------------------------------------------------------|
G|-------------------------------------------------------------|
D|-------------------------------------------------------------|
A|--0--0-6-0-3-2--0--0-6-0-3-2----2--2-6-2-3-2--2--2-6-2-3-2---|
E|-------------------------------------------------------------|



e|-------------------------------------------------------------|
B|-------------------------------------------------------------|
G|-------------------------------------------------------------|
D|---------------------4---------------------------------------|
A|--0--0-6-0-3-2--0--0---0-3-2----2--2-6-3-2--2--2-6-2-3-2-----|
E|-------------------------------------------------------------|


e|--------------------------------------------------------------------|
B|--------------------------------------------------------------------|
G|--------------------------------------------------------------------|
D|--------------------------------------------------------------------| x2
A|--10----------------10----9---7-9---6---3---3-2----6---3---3-2------|
E|------0-0-0-0-0-0-0-----0---0-----0---0---0------0---0---0----------|



e|-------------------------------------------------------------|
B|-------------------------------------------------------------|
G|-------------------------------------------------------------|
D|-------------------------------------------------------------|
A|--0--0-6-0-3-2--0--0-6-0-3-2----2--2-6-2-3-2--2--2-6-2-3-2---|
E|-------------------------------------------------------------|



e|-------------------------------------------------------------|
B|-------------------------------------------------------------|
G|-------------------------------------------------------------|
D|---------------------4---------------------------------------|
A|--0--0-6-0-3-2--0--0---0-3-2----2--2-6-3-2--2--2-6-2-3-2-----|
E|-------------------------------------------------------------|



e|-------------------------------------------------------------------------------------|
B|-------------------------------------------------------------------------------------|
G|--------------------------------------7-7/9--9/12--12/16--16\12--12\9-9/11/12--------|
D|--5---------------7------------------------------------------------------------------|
A|--5---------------7-------------------5-5/7--7/10--10/14--14\10--10\7-7/9-/10--------|
E|--3--3-3-3-3-3-3--5--5-5-5-5-5-5--0--------------------------------------------------|



e|---------------------------------------------------------------------------|
B|---------------------------------------------------------------------------|
G|-------------------------------------9-9-9-9--7-7-7-7--6-6-6-6--4-4-4-4----|
D|--5---------------7--------------------------------------------------------|
A|--5---------------7------------------7-7-7-7--5-5-5-5--4-4-4-4--2-2-2-2----|
E|--3--3-3-3-3-3-3--5--5-5--5-5-5-5--0---------------------------------------|



e|-------------------------------------------------------------------------------------|
B|-------------------------------------------------------------------------------------|
G|--------------------------------------7-7/9--9/12--12/16--16\12--12\9-9/11/12--------|
D|--5---------------7------------------------------------------------------------------|
A|--5---------------7-------------------5-5/7--7/10--10/14--14\10--10\7-7/9-/10--------|
E|--3--3-3-3-3-3-3--5--5-5-5-5-5-5--0--------------------------------------------------|


e|-------------------------------------------------------------------------------------------------------|
B|-------------------------------------------------------------------------------------------------------|
G|-------------------------------------------------------------------------------------------------------|
D|--5---------------7------------------------------------------------------------------------------------|
A|--5---------------7------------------7-7-6-6-5-5-4-4------------------7-7-6-6-5-5-4-4------------------|
E|--3--3-3-3-3-3-3--5--5-5-5-5-5-5--0------------------8-8-7-7-6-6-5--0-----------------8-8-7-7-6-6-5----|


e|----------------------------------------------------------------------|
B|----------------------------------------------------------------------|
G|----------------------------------------------------------------------|
D|----------------------------------------------------------------------|
A|----7-7-6-6-5-5-4-4---------------------------------------------------|
E|--0-----------------8-8-7-7-6-6-5--5-7-7-6-6-5-5-4-4-3-3-2-2-1-1-0----|


e|----------------------------------------------------------------------|
B|----------------------------------------------------------------------|
G|----------------------------------------------------------------------|
D|----------------------------------------------------------------------|
A|---7-7-6-6-5-5-4-4-------------------7-7-6-6-5-5-4-4------------------|
E|-0------------------8-8-7-7-6-6-5--0-----------------8-8-7-7-6-6-5----|


e|----------------------------------------------------------------------|
B|----------------------------------------------------------------------|
G|----------------------------------------------------------------------|
D|----------------------------------------------------------------------|
A|----7-7-6-6-5-5-4-4---------------------------------------------------|
E|--0-----------------8-8-7-7-6-6-5--5-7-7-6-6-5-5-4-4-3-3-2-2-1-1-0----|


e|--------------------------------------------------------------------------| 
B|--------------------------------------------------------------------------|
G|--------------------------------------------------------------------------|
D|--------------------------------------------------------------------------|
A|-----------4-5-4-5-------------4-5-4-5----------4-5-4-5------5------5-----|
E|--0-0-0-0--2-3-2-3--0-0-0-0-0--2-3-2-3--0-0-0-0-2-3-2-3--0-0-3--0-0-3-----|
(x2)


e|---------------------------------------------------------------------------------------------|
B|---------------------------------------------------------------------------------------------|
G|---------------------------------------------------------------------------------------------|
D|--2------------------------------------2-----------------------------------------------------|
A|--2--------6---3---3-2--6---3---3-2----2----------------------------------6---3---3-2----6---|
E|--0------0---0---0--------0---0--------0--0-0-0--0-0-0-0--0-0-0-0--0-0-0----0---0------0-----|



e|------------------------------------------------------------------|
B|------------------------------------------------------------------|
G|------------------------------------------------------------------|
D|-4-4-4------------------------------------------------------------|
A|-2-2-2--0--0-6-0-3-2--0--0-6-0-3-2----2--2-6-2-3-2--2--2-6-2-3-2--|
E|------------------------------------------------------------------|



e|---------------------------------------------------|
B|---------------------------------------------------|
G|---------------------------------------------------|
D|---------------------4----------4--5-4--5-4--------|
A|--0--0-6-0-3-2--0--0---0-3-2----2--3-2--3-2--------|
E|---------------------------------------------------|



e|-------------------------------------------------------------------------------------|
B|-------------------------------------------------------------------------------------|
G|--------------------------------------7-7/9--9/12--12/16--16\12--12\9-9/11/12--------|
D|--5---------------7------------------------------------------------------------------|
A|--5---------------7-------------------5-5/7--7/10--10/14--14\10--10\7-7/9-/10--------|
E|--3--3-3-3-3-3-3--5--5-5-5-5-5-5--0--------------------------------------------------|



e|---------------------------------------------------------------------------|
B|---------------------------------------------------------------------------|
G|-------------------------------------9-9-9-9--7-7-7-7--6-6-6-6--4-4-4-4----|
D|--5---------------7--------------------------------------------------------|
A|--5---------------7------------------7-7-7-7--5-5-5-5--4-4-4-4--2-2-2-2----|
E|--3--3-3-3-3-3-3--5--5-5--5-5-5-5--0---------------------------------------|



e|-------------------------------------------------------------------------------------|
B|-------------------------------------------------------------------------------------|
G|--------------------------------------7-7/9--9/12--12/16--16\12--12\9-9/11/12--------|
D|--5---------------7------------------------------------------------------------------|
A|--5---------------7-------------------5-5/7--7/10--10/14--14\10--10\7-7/9-/10--------|
E|--3--3-3-3-3-3-3--5--5-5-5-5-5-5--0--------------------------------------------------|


e|-------------------------------------------------------------------------------------------------------|
B|-------------------------------------------------------------------------------------------------------|
G|-------------------------------------------------------------------------------------------------------|
D|--5---------------7------------------------------------------------------------------------------------|
A|--5---------------7------------------7-7-6-6-5-5-4-4------------------7-7-6-6-5-5-4-4------------------|
E|--3--3-3-3-3-3-3--5--5-5-5-5-5-5--0------------------8-8-7-7-6-6-5--0-----------------8-8-7-7-6-6-5----|


e|----------------------------------------------------------------------|
B|----------------------------------------------------------------------|
G|----------------------------------------------------------------------|
D|----------------------------------------------------------------------|
A|----7-7-6-6-5-5-4-4---------------------------------------------------|
E|--0-----------------8-8-7-7-6-6-5--5-7-7-6-6-5-5-4-4-3-3-2-2-1-1-0----|


e|----------------------------------------------------------------------|
B|----------------------------------------------------------------------|
G|----------------------------------------------------------------------|
D|----------------------------------------------------------------------|
A|---7-7-6-6-5-5-4-4-------------------7-7-6-6-5-5-4-4-------4-5-4-5----|
E|-0------------------8-8-7-7-6-6-5--0-----------------8-8-7-2-3-2-3----|


e|----------------------------------------------------------------------|
B|----------------------------------------------------------------------|
G|----------------------------------------------------------------------|
D|----------------------------------------------------------------------|
A|----7-7-6-6-5-5-4-4---------------------------------------------------|
E|--0-----------------8-8-7-7-6-6-5--5-7-7-6-6-5-5-4-4-3-3-2-2-1-1-0----|


e|--------------------------------------------------------------------------| 
B|--------------------------------------------------------------------------|
G|--------------------------------------------------------------------------|
D|--------------------------------------------------------------------------|
A|-----------4-5-4-5-------------4-5-4-5----------4-5-4-5------5------5-----|
E|--0-0-0-0--2-3-2-3--0-0-0-0-0--2-3-2-3--0-0-0-0-2-3-2-3--0-0-3--0-0-3-----|
(x2)



Key:

/ = Slide up 
\ = slide down


Also, if you have the time I suggest you watch the video for this song 
            
Submit corrections

comments powered by Disqus
↑ Back to top | Devin Townsend Tabs for Vampira. Lyrics for acoustic guitar and electric guitar. 1 Tablatures and chords are parodies/interpretations of the original songs. You may use it for private study, scholarship, research or language learning purposes only