» » »

Devin Townsend, Traveller Tabs (ver.1)

Artists:  A B C D E F G H I J K L M N O P Q R S T U V W X Y Z # 

Traveller Tabs (ver.1)

Devin Townsend Tabs
 Rating:
4/5 (4 votes)
Traveller lessons Tabs too difficult? Try these video lessons and learn fast
                Tuning: CGCGCE


Intro:
E|---------------------------------------------------------------|
C|----------------0-0-0-0-0-0-0-0-0-0----------------------------|
G|----------------0-0-0-0-0-0-0-0-0-0----------------------------|
C|--5-5-5--7-7-7--0-0-0-0-0-0-0-0-0-0----------------------------|
G|--5-5-5--7-7-7-------------------------------------------------|
C|--5-5-5--7-7-7-------------------------------------------------|

E|---------------------------------------------------------------|
C|----------------0-0-0-0-0-0-0-0-0-0----------------------------|
G|----------------0-0-0-0-0-0-0-0-0-0----------------------------|
C|--5-5-5--7-7-7--0-0-0-0-0-0-0-0-0-0----------------------------|
G|--5-5-5--7-7-7-------------------------------------------------|
C|--5-5-5--7-7-7-------------------------------------------------|

E|---------------------------------------------------------------|
C|---------------------------------------------------------------|
G|---------------------------------------------------------------|
C|--5-5-5--7-7-7--9-9-9-9-9-9-9-9-9-9----------------------------|
G|--5-5-5--7-7-7--9-9-9-9-9-9-9-9-9-9----------------------------|
C|--5-5-5--7-7-7--9-9-9-9-9-9-9-9-9-9----------------------------|

E|---------------------------------------------------------------|
C|----------------0-0-0-0-0-0-0-0-0-0----------------------------|
G|----------------0-0-0-0-0-0-0-0-0-0----------------------------|
C|--5-5-5--7-7-7--0-0-0-0-0-0-0-0-0-0----------------------------|
G|--5-5-5--7-7-7-------------------------------------------------|
C|--5-5-5--7-7-7-------------------------------------------------|

E|---------------------------------------------------------------|
C|----------------0-0-0------------------------------------------|
G|----------------0-0-0--9-9--9-9-9-9----------------------------|
C|--5-5-5--7-7-7--0-0-0--x-x--x-x-x-x----------------------------|
G|--5-5-5--7-7-7---------9-9--9-9-9-9----------------------------|
C|--5-5-5--7-7-7-------------------------------------------------|

E|---------------------------------------------------------------|
C|----------------0-0-0------------------------------------------|
G|----------------0-0-0--9-9--9-9-9-9----------------------------|
C|--5-5-5--7-7-7--0-0-0--x-x--x-x-x-x----------------------------|
G|--5-5-5--7-7-7---------9-9--9-9-9-9----------------------------|
C|--5-5-5--7-7-7-------------------------------------------------|

E|---------------------------------------------------------------|
C|---------------------------------------------------------------|
G|---------------------------------------------------------------|
C|--5-5-5--7-7-7--9-9-9-9-9-9-9-9-9-9----------------------------|
G|--5-5-5--7-7-7--9-9-9-9-9-9-9-9-9-9----------------------------|
C|--5-5-5--7-7-7--9-9-9-9-9-9-9-9-9-9----------------------------|

E|---------------------------------------------------------------|
C|----------------0-0-0-0-0-0-0-0-0-0----------------------------|
G|----------------0-0-0-0-0-0-0-0-0-0----------------------------|
C|--5-5-5--7-7-7--0-0-0-0-0-0-0-0-0-0----------------------------|
G|--5-5-5--7-7-7-------------------------------------------------|
C|--5-5-5--7-7-7-------------------------------------------------|

E|---------------------------------------------------------------|
C|---------------------------------------------------------------|
G|---------------------------------------------------------------|
C|--\--------------------------------------------------------|
G|---------------------------------------------------------------|
C|---------------------------------------------------------------|
  <>= Harmonics

E|---------------------------------------------------------------|
C|---------------------------------------------------------------|
G|--5-5--5/7-3--5-5--5/7-3--5-5--5/7-3--5-5--5/7-3---------------|
C|--7-7--7/9-5--7-7--7/9-5--7-7--7/9-5--7-7--7/9-5---------------|
G|--5-5--5/7-3--5-5--5/7-3--5-5--5/7-3--5-5--5/7-3---------------|
C|---------------------------------------------------------------|

E|---------------------------------------------------------------|
C|---------------------------------------------------------------|
G|---------------------------------------------------------------|
C|---------------------------------------------------------------|
G|---------------------------------------------------------------|
C|--7-5-7-0-2-4-7-5-7-0-2-4/9-7-5-7-0-2-4-5-4-0--0-0-0-----------|

E|---------------------------------------------------------------|
C|---------------------------------------------------------------|
G|---------------------------------------------------------------|
C|---------------------------------------------------------------|
G|---------------------------------------------------------------|
C|--7-5-7-0-2-4-7-5-7-0-2-4/9-7-5-7-0-2-4-5-4-0--0-0-0-----------|

E|---------------------------------------------------------------|
C|---------------------------------------------------------------|
G|--5-5--5/7-3--5-5--5/7-3--5-5--5/7-3--5-5--5/7-3---------------|
C|--7-7--7/9-5--7-7--7/9-5--7-7--7/9-5--7-7--7/9-5---------------|
G|--5-5--5/7-3--5-5--5/7-3--5-5--5/7-3--5-5--5/7-3---------------|
C|---------------------------------------------------------------|

E|---------------------------------------------------------------|
C|---------------------------------------------------------------|
G|---------------------------------------------------------------|
C|---------------------------------------------------------------|
G|---------------------------------------------------------------|
C|--7-5-7-0-2-4-7-5-7-0-2-4/9-7-5-7-0-2-4-5-4-0--0-0-0-----------|

E|---------------------------------------------------------------|
C|---------------------------------------------------------------|
G|---------------------------------------------------------------|
C|---------------------------------------------------------------|
G|---------------------------------------------------------------|
C|--7-5-7-0-2-4-7-5-7-0-2-4/9-7-5-7-0-2-4-5-4-0--0-0-0-----------|

E|---------------------------------------------------------------|
C|--------0-0-0-0-0-0-0-0----------------------------------------|
G|--------0-0-0-0-0-0-0-0----------------------------------------|
C|--------0-0-0-0-0-0-0-0----------------------------------------|
G|--------0-0-0-0-0-0-0-0----------------------------------------|
C|--9-11---------------------------------------------------------|


Chorus:
E|--------0-0-0-0------------------------------------------------|
C|--0-0-0-0-0-0-0-------7-7-7-7--5-5-5-5-5-5-5-5-5-5-5-5-5-5-5-5-|
G|--0-0-0-0-0-0-0-------7-7-7-7--5-5-5-5-5-5-5-5-5-5-5-5-5-5-5-5-|
C|--0-0-0-0-0-0-0-7-7-7-7-7-7-7--5-5-5-5-5-5-5-5-5-5-5-5-5-5-5-5-|
G|----------------7-7-7-7-7-7-7--5-5-5-5-5-5-5-5-5-5-5-5-5-5-5-5-|
C|----------------7-7-7-7-7-7-7--5-5-5-5-5-5-5-5-5-5-5-5-5-5-5-5-|
(And I Wanna Put My Faith In You, Babe)

E|--------0-0-0-0------------------------------------------------|
C|--0-0-0-0-0-0-0-------7-7-7-7--5-5-5-5-5-5-5-5-5-5-5-5-5-5-5-5-|
G|--0-0-0-0-0-0-0-------7-7-7-7--5-5-5-5-5-5-5-5-5-5-5-5-5-5-5-5-|
C|--0-0-0-0-0-0-0-7-7-7-7-7-7-7--5-5-5-5-5-5-5-5-5-5-5-5-5-5-5-5-|
G|----------------7-7-7-7-7-7-7--5-5-5-5-5-5-5-5-5-5-5-5-5-5-5-5-|
C|----------------7-7-7-7-7-7-7--5-5-5-5-5-5-5-5-5-5-5-5-5-5-5-5-|
(But I Have To Face It In Another Way)

E|-----------------------------------------------------------------|
C|-----------------------------------------------------------------|
G|-2-2-2-2-2-2-2-2-2-2-2-2-2-2-2-2---------------------------------|
C|-4-4-4-4-4-4-4-4-4-4-4-4-4-4-4-4-2-2-2-2-2-2-2-2-2-2-2-2-2-2-2-2-|
G|-2-2-2-2-2-2-2-2-2-2-2-2-2-2-2-2-2-2-2-2-2-2-2-2-2-2-2-2-2-2-2-2-|
C|---------------------------------2-2-2-2-2-2-2-2-2-2-2-2-2-2-2-2-|
(Let Go, Free From All) 


E|--------------------------0------------------------------------|
C|--------------------------0------------------------------------|
G|--------------------------0------------------------------------|
C|--5-5-5-4--5-5-5-7--5-5-7-0------------------------------------|
G|--5-5-5-4--5-5-5-7--5-5-7-0------------------------------------|
C|--5-5-5-4--5-5-5-7--5-5-7-0------------------------------------|
(Now Im The Traveller, Traveller, Travel Around!)

Brigde:
E|---------------------------------------------------------------------|
C|---------------------------------------------------------------------|
G|---------------------------------------------------------------------|
C|---------------------------------------------------------------------|
G|--------------3-2---2-3------3-2---2-3------3-2---2-3------3-2---2-3-|
C|--12\----2-3------3------2-3-----3------2-3-----3------2-3-----3-----|

E|---------------------------------------------------------------|
C|---------------------------------------------------------------|
G|---------------------------------------------------------------|
C|---------------------------------------------------------------|
G|------3-2---2-3------3-2---2-3------3-2---2-3------3-2---2-3---|
C|--0-0-----3------0-0-----3------0-0-----3------0-0-----3-------|

E|---------------------------------------------------------------|
C|---------------------------------------------------------------|
G|---------------------------------------------------------------|
C|--------2--------------2--------------2--------------2---------|
G|------2---2-2-3------2---2-2-3------2---2-2-3------2---2-2-3---|
C|--2-3------------2-3------------2-3------------2-3-------------|

E|-----------------------------------------------------------------------|
C|-----------------------------------------------------------------------|
G|-----------------------------------------------------------------------|
C|-------------------------------------------------------------------(0)-|
G|------3--2-2-3------3--2-2-3------3--2-2-3------3-2-2-2-3-(0)-|
C|--0-0--------------0-0--------------0-0--------------0-0-----------(0)-|
<>= Pinch Harmonic

E|--------0-0-0-0------------------------------------------------|
C|--0-0-0-0-0-0-0-------7-7-7-7--5-5-5-5-5-5-5-5-5-5-5-5-5-5-5-5-|
G|--0-0-0-0-0-0-0-------7-7-7-7--5-5-5-5-5-5-5-5-5-5-5-5-5-5-5-5-|
C|--0-0-0-0-0-0-0-7-7-7-7-7-7-7--5-5-5-5-5-5-5-5-5-5-5-5-5-5-5-5-|
G|----------------7-7-7-7-7-7-7--5-5-5-5-5-5-5-5-5-5-5-5-5-5-5-5-|
C|----------------7-7-7-7-7-7-7--5-5-5-5-5-5-5-5-5-5-5-5-5-5-5-5-|

E|--------0-0-0-0------------------------------------------------|
C|--0-0-0-0-0-0-0-------7-7-7-7--5-5-5-5-5-5-5-5-5-5-5-5-5-5-5-5-|
G|--0-0-0-0-0-0-0-------7-7-7-7--5-5-5-5-5-5-5-5-5-5-5-5-5-5-5-5-|
C|--0-0-0-0-0-0-0-7-7-7-7-7-7-7--5-5-5-5-5-5-5-5-5-5-5-5-5-5-5-5-|
G|----------------7-7-7-7-7-7-7--5-5-5-5-5-5-5-5-5-5-5-5-5-5-5-5-|
C|----------------7-7-7-7-7-7-7--5-5-5-5-5-5-5-5-5-5-5-5-5-5-5-5-|

Chorus:
E|--------0-0-0-0------------------------------------------------|
C|--0-0-0-0-0-0-0-------7-7-7-7--5-5-5-5-5-5-5-5-5-5-5-5-5-5-5-5-|
G|--0-0-0-0-0-0-0-------7-7-7-7--5-5-5-5-5-5-5-5-5-5-5-5-5-5-5-5-|
C|--0-0-0-0-0-0-0-7-7-7-7-7-7-7--5-5-5-5-5-5-5-5-5-5-5-5-5-5-5-5-|
G|----------------7-7-7-7-7-7-7--5-5-5-5-5-5-5-5-5-5-5-5-5-5-5-5-|
C|----------------7-7-7-7-7-7-7--5-5-5-5-5-5-5-5-5-5-5-5-5-5-5-5-|
(And I Wanna Put My Faith In You, Babe)

E|--------0-0-0-0------------------------------------------------|
C|--0-0-0-0-0-0-0-------7-7-7-7--5-5-5-5-5-5-5-5-5-5-5-5-5-5-5-5-|
G|--0-0-0-0-0-0-0-------7-7-7-7--5-5-5-5-5-5-5-5-5-5-5-5-5-5-5-5-|
C|--0-0-0-0-0-0-0-7-7-7-7-7-7-7--5-5-5-5-5-5-5-5-5-5-5-5-5-5-5-5-|
G|----------------7-7-7-7-7-7-7--5-5-5-5-5-5-5-5-5-5-5-5-5-5-5-5-|
C|----------------7-7-7-7-7-7-7--5-5-5-5-5-5-5-5-5-5-5-5-5-5-5-5-|
(But I Have To Face It In Another Way)

E|--------0-0-0-0------------------------------------------------|
C|--0-0-0-0-0-0-0-------7-7-7-7--5-5-5-5-5-5-5-5-5-5-5-5-5-5-5-5-|
G|--0-0-0-0-0-0-0-------7-7-7-7--5-5-5-5-5-5-5-5-5-5-5-5-5-5-5-5-|
C|--0-0-0-0-0-0-0-7-7-7-7-7-7-7--5-5-5-5-5-5-5-5-5-5-5-5-5-5-5-5-|
G|----------------7-7-7-7-7-7-7--5-5-5-5-5-5-5-5-5-5-5-5-5-5-5-5-|
C|----------------7-7-7-7-7-7-7--5-5-5-5-5-5-5-5-5-5-5-5-5-5-5-5-|
(I Wanna Put My Faith In You, Babe)

E|-----------------------------------------------------------------|
C|-----------------------------------------------------------------|
G|-2-2-2-2-2-2-2-2-2-2-2-2-2-2-2-2---------------------------------|
C|-4-4-4-4-4-4-4-4-4-4-4-4-4-4-4-4-2-2-2-2-2-2-2-2-2-2-2-2-2-2-2-2-|
G|-2-2-2-2-2-2-2-2-2-2-2-2-2-2-2-2-2-2-2-2-2-2-2-2-2-2-2-2-2-2-2-2-|
C|---------------------------------2-2-2-2-2-2-2-2-2-2-2-2-2-2-2-2-|
(Let Go, Free From All) 

E|-----------------------------------------------------------------|
C|-----------------------------------------------------------------|
G|-----------------------------------------------------------------|
C|-----------------------------------------------------------------|
G|--(0)-2-2-2-2/4-4-4-4/5-5-5-5/7-7-5-7-7-7-7-7-7-7-7-7-7-7-7-7-7\-|
C|-----------------------------------------------------------------|
(Let Go, Ill Free Fall)

E|---------------------------------------------------------------|
C|---------------------------------------------------------------|
G|---------------------------------------------------------------|
C|--5-5-5-4--5-5-5-4--7-7-7-7--5-5-5-4--5-5-5-4--7-7-7-7---------|
G|--5-5-5-4--5-5-5-4--7-7-7-7--5-5-5-4--5-5-5-4--7-7-7-7---------|
C|--5-5-5-4--5-5-5-4--7-7-7-7--5-5-5-4--5-5-5-4--7-7-7-7---------|

E|-----------------------------------------------------0---------|
C|-----------------------------------------------------0---------|
G|-----------------------------------------------------0---------|
C|--5-5-5-4--5-5-5-4--7-7-7-7--5-5-5-4--5-5-5-4--5-5-7-0---------|
G|--5-5-5-4--5-5-5-4--7-7-7-7--5-5-5-4--5-5-5-4--5-5-7-0---------|
C|--5-5-5-4--5-5-5-4--7-7-7-7--5-5-5-4--5-5-5-4--5-5-7-0---------|

E|---------------------------------------------------------------|
C|---------------------------------------------------------------|
G|---------------------------------------------------------------|
C|--12-12-12-12\-------------------------------------------------|
G|--12-12-12-12\-------------------------------------------------|
C|--12-12-12-12\-------------------------------------------------|

(Now I'm a traveller,traveller,(travel around!)
traveller, traveller,(travel around!)
traveller, traveller,(travel around!)
TRAVELLER,TRAVELLER,TRAVEL AROUND!)
            
Submit corrections

comments powered by Disqus
↑ Back to top | Devin Townsend Tabs for Traveller. Lyrics for acoustic guitar and electric guitar. Tablatures and chords are parodies/interpretations of the original songs. You may use it for private study, scholarship, research or language learning purposes only