>
 >
Suicide

Suicide Bass Tabs

Devin Townsend - Suicide chords, tabs, tablatures, lyrics

Guitar lessons | Add/correct | Request | Top 50 tabs Artists:  A B C D E F G H I J K L M N O P Q R S T U V W X Y Z 0-9

Suicide Bass Tabs – Devin Townsend

CD, Sheet music, Poster

Do you like Suicide? Share with your friends now
Bass TabsBass Tabs v2Tabs
     H        Q       H        Q       H        Q       H        Q     
F||----------------|----------------|----------------|----------------|
C||----------------|----------------|----------------|----------------|
G||----------------|----------------|----------------|----------------|
C||----------------|----------------|----------------|----------------|


  H        Q       H        Q       H        Q       H        Q     
----------------|----------------|----------------|----------------|
----------------|----------------|----------------|----------------|
----------------|----------------|----------------|----------------|
----------------|----------------|----------------|----------------|


  H        Q       H        Q       H        Q       H        Q     
----------------|----------------|----------------|----------------|
----------------|----------------|----------------|----------------|
----------------|----------------|----------------|----------------|
----------------|----------------|----------------|----------------|


  H        Q       H        Q       H        Q       H        Q     
----------------|----------------|----------------|----------------|
----------------|----------------|----------------|----------------|
----------------|----------------|----------------|----------------|
----------------|----------------|----------------|----------------|


    E  S S S S E  S S S S    E  S S S S E  E  E     E  S S S S E  S S S S  
|-------------------------|----------------------|------------------------|
|*------------------------|----------------------|------------------------|
|*------------------------|----------------------|------------------------|
|---3--0-0-0-0-3--0-0-0-0-|--3--0-0-0-0-5--5--5--|--3--0-0-0-0-3--0-0-0-0-|


  E  S S S S E   S E   S    E  S S S S E  S S S S    E  S S S S E  E  E   
-------------------------|------------------------|----------------------|
-------------------------|------------------------|----------------------|
-----------------0-----0-|------------------------|----------------------|
--3--0-0-0-0-5b----5b----|--3--0-0-0-0-3--0-0-0-0-|--3--0-0-0-0-5--5--5--|


  E  S S E  E  S S E     E  S S E  S S S S S S      E  S S S S E  S S S S  
----------------------|-------------------------||------------------------|
----------------------|------------------------*||------------------------|
----------------------|------------------------*||------------------------|
--0--0-0-0--0--0-0-0--|--0--0-0-0--0-0-0-0-0-0--||--0--0-0-0-0-0--0-0-0-0-|


  E  S S S S E  S S S S    E  S S S S E  S S S S    E  S S S S E  S S S S  
------------------------|------------------------|------------------------|
------------------------|------------------------|------------------------|
------------------------|------------------------|------------------------|
--0--0-0-0-0-0--0-0-0-0-|--0--0-0-0-0-0--0-0-0-0-|--0--0-0-0-0-0--0-0-0-0-|


  E  S S S S E  S S S S    E  S S S S E  S S E     E  S S S S E  S S S S  
------------------------|-----------------------|------------------------|
------------------------|-----------------------|------------------------|
------------------------|-----------------------|------------------------|
--0--0-0-0-0-0--0-0-0-0-|--0--0-0-0-0-0--0-0-0--|--0--0-0-0-0-0--0-0-0-0-|


  S S S S S S S S S S S S    S  S S S S S S  S S S S S  
--------------------------|----------------------------|
--------------------------|----------------------------|
--------------------------|---------5------------5-----|
--5-5-5-5-5-5-5-5-5-5-5-5-|--3p-0-0---7-0-3p-0-0---7-0-|


  S  S S S S S E  E  E     S  S S S S S S  S S S S S  
------------------------|----------------------------|
------------------------|----------------------------|
---------5--------------|---------5------------5-----|
--3p-0-0---7-0-5--5--5--|--3p-0-0---7-0-3p-0-0---7-0-|


  S  S S S S S E.    E.       S  S S S S S S  S S S S S  
---------------------------|----------------------------|
---------------------------|----------------------------|
---------5-----------------|---------5------------5-----|
--3p-0-0---7-0-9br---9br---|--3p-0-0---7-0-3p-0-0---7-0-|


  S  S S S S S E  E  E     E  S S E  E  S S E     E  S S E  E  S S E   
------------------------|----------------------|----------------------|
------------------------|----------------------|----------------------|
---------5--------------|----------------------|----------------------|
--3p-0-0---7-0-5--5--5--|--0--0-0-0--0--0-0-0--|--0--0-0-0--0--0-0-0--|


  E  S S S S E  S S S S    E  S S S S E  E  E     E  S S S S E  S S S S  
------------------------|----------------------|------------------------|
------------------------|----------------------|------------------------|
------------------------|----------------------|------------------------|
--3--0-0-0-0-3--0-0-0-0-|--3--0-0-0-0-5--5--5--|--3--0-0-0-0-3--0-0-0-0-|


  E  S S S S E  S E  S    E  S S S S E  S S S S    E  S S S S E  E  E   
-----------------------|------------------------|----------------------|
-----------------------|------------------------|----------------------|
----------------0----0-|------------------------|----------------------|
--3--0-0-0-0-5----5----|--3--0-0-0-0-3--0-0-0-0-|--3--0-0-0-0-5--5--5--|


  H.              H.              E  S S S S E  S S S S    E  S S S S E  E  E   
---------------|---------------|------------------------|----------------------|
---------------|---------------|------------------------|----------------------|
---------------|---------------|------------------------|----------------------|
--0------------|--L------------|--3--0-0-0-0-3--0-0-0-0-|--3--0-0-0-0-5--5--5--|


  E  S S S S E  S S S S    E  S S S S E.    E.       E  S S S S E  S S S S  
------------------------|-------------------------|------------------------|
------------------------|-------------------------|------------------------|
------------------------|-------------2br---2br---|------------------------|
--3--0-0-0-0-3--0-0-0-0-|--3--0-0-0-0-------------|--3--0-0-0-0-3--0-0-0-0-|


  E  S S S S E  E  E     E  S S E  E  S S E     E  S S E  E  S S E   
----------------------|----------------------|----------------------|
----------------------|----------------------|----------------------|
----------------------|----------------------|----------------------|
--3--0-0-0-0-5--5--5--|--0--0-0-0--0--0-0-0--|--0--0-0-0--0--0-0-0--|


  E  S S S S E  S S S S    E  S S S S E  S S S S    E  S S S S E  S S S S  
------------------------|------------------------|------------------------|
------------------------|------------------------|------------------------|
------------------------|------------------------|------------------------|
--0--0-0-0-0-0--0-0-0-0-|--0--0-0-0-0-0--0-0-0-0-|--0--0-0-0-0-0--0-0-0-0-|


  E  S S S S E  S S S S    E  S S S S E  S S S S    E  S S S S E  S S E   
------------------------|------------------------|-----------------------|
------------------------|------------------------|-----------------------|
------------------------|------------------------|-----------------------|
--0--0-0-0-0-0--0-0-0-0-|--0--0-0-0-0-0--0-0-0-0-|--0--0-0-0-0-0--0-0-0--|


  E  S S S S E  S S S S    S S S S S S S S S S S S  
------------------------|--------------------------|
------------------------|--------------------------|
------------------------|--------------------------|
--0--0-0-0-0-0--0-0-0-0-|--5-5-5-5-5-5-5-5-5-5-5-5-|


  S  S S S S S S  S S S S S    S  S S S S S E  E  E   
----------------------------|------------------------|
----------------------------|------------------------|
---------5------------5-----|---------5--------------|
--3p-0-0---7-0-3p-0-0---7-0-|--3p-0-0---7-0-5--5--5--|


  S  S S S S S S  S S S S S    S  S S S S S E.    E.     
----------------------------|---------------------------|
----------------------------|---------------------------|
---------5------------5-----|---------5-----------------|
--3p-0-0---7-0-3p-0-0---7-0-|--3p-0-0---7-0-9br---9br---|


  S  S S S S S S  S S S S S    S  S S S S S E  E  E     E  S S E  E  S S E   
----------------------------|------------------------|----------------------|
----------------------------|------------------------|----------------------|
---------5------------5-----|---------5--------------|----------------------|
--3p-0-0---7-0-3p-0-0---7-0-|--3p-0-0---7-0-5--5--5--|--0--0-0-0--0--0-0-0--|


  E  S S E  S S S S S S      S S S S S S S S S S S S  
------------------------||---------------------------|
------------------------||*--------------------------|
------------------------||*--------------------------|
--0--0-0-0--0-0-0-0-0-0-||---8-8-8-8-8-8-8-8-8-8-8-8-|


  S S S S S S S S S S S S    S S S S S S S S S S S S  
--------------------------|--------------------------|
--------------------------|--------------------------|
--------------------------|--------------------------|
--0-0-0-0-0-0-0-0-0-0-0-0-|--8-8-8-8-8-8-8-8-8-8-8-8-|


  S S S S S S S S S S S S    S S S S S S S S S S S S  
--------------------------|--------------------------|
--------------------------|--------------------------|
--------------------------|--------------------------|
--0-0-0-0-0-0-0-0-0-0-0-0-|--8-8-8-8-8-8-8-8-8-8-8-8-|


  S S S S S S S S S S S S    S S S S S S S S S S S S  
--------------------------|--------------------------|
--------------------------|--------------------------|
--------------------------|--------------------------|
--0-0-0-0-0-0-0-0-0-0-0-0-|--6-6-6-6-6-6-6-6-6-6-6-6-|


  S S S S S S S S S S S S      H        Q       H        Q       H        Q     
---------------------------||----------------|----------------|----------------|
--------------------------*||----------------|----------------|----------------|
--------------------------*||----------------|----------------|----------------|
--6-6-6-6-6-6-6-6-6-6-6-6--||----------------|----------------|----------------|


  H        Q       Q    E     H        Q       H        Q     
----------------|----------|----------------|----------------|
----------------|----------|----------------|----------------|
----------------|----------|----------------|----------------|
----------------|----------|----------------|----------------|


  Wow, you mean there is bass in this song?                        
  S                                         S S S S S S S S S S S  
--0-------------------------------------------0-0-0---0---0-0-0---|


  S S S S S S S S S S S S    S S S S S S S S S S S S  
--------------------------|--------------------------|
--------------------------|--------------------------|
--------------------------|--------------------------|
--0---0-0-0---0---0-0-0---|--0---0-0-0---0---0-0-0---|


  S S S S S S S S S S S S    S S S S S S S S S S S S  
--------------------------|--------------------------|
--------------------------|--------------------------|
--------------------------|--------------------------|
--0---0-0-0---0---0-0-0---|--0---0-0-0---0---0-0-0---|


  S S S S S S S S S S S S    S S S S S S S S S S S S  
--------------------------|--------------------------|
--------------------------|--------------------------|
--------------------------|--------------------------|
--0---0-0-0---0---0-0-0---|--0---0-0-0---0---0-0-0---|


  S S S S S S S S S S S S    S S S S S S S S S S S S  
--------------------------|--------------------------|
--------------------------|--------------------------|
--------------------------|--------------------------|
--0---0-0-0---0---0-0-0---|--0---0-0-0---0---0-0-0---|


  S S S S S S S S S S S S    S S S S S S S S S S S S    E  S S E  E  S S E   
--------------------------|--------------------------|----------------------|
--------------------------|--------------------------|----------------------|
--------------------------|--------------------------|----------------------|
--0---0-0-0---0---0-0-0---|--0---0-0-0---0---0-0-0---|--0--0-0-0--0--0-0-0--|


  S E  E  S S E  E  S    S E  E  S S  S S S S S    S E  E  S S E  E  S  
----------------------|-------------------------|----------------------|
----------------------|-------------------------|----------------------|
----------------------|------------5h-7-7-7-7-7-|--3-3--3--3-3-3--3--3-|
--0-0--0--0-0-0--0--0-|--0-0--0--0--------------|----------------------|


  S E  E  S S E  E  S    S E  E  S S E  E  S    S E  E  S S  S S S S S  
----------------------|----------------------|-------------------------|
----------------------|----------------------|-------------------------|
--3-3--3--3-3-3--3--3-|----------------------|------------5h-7-7-7-7-7-|
----------------------|--0-0--0--0-0-0--0--0-|--0-0--0--0--------------|


  S E  E  S S E  E  S    S E  E  S S E  E  S    S E  E  S S E  E  S  
----------------------|----------------------|----------------------|
----------------------|----------------------|----------------------|
--3-3--3--3-3-3--3--3-|--2-2--2--2-0-0--0--0-|----------------------|
----------------------|----------------------|--0-0--0--0-0-0--0--0-|


  S E  E  S S  S S S S S    S E  E  S S E  E  S    S E  E  S S E  E  S  
-------------------------|----------------------|----------------------|
-------------------------|----------------------|----------------------|
------------5h-7-7-7-7-7-|--3-3--3--3-3-3--3--3-|--3-3--3--3-3-3--3--3-|
--0-0--0--0--------------|----------------------|----------------------|


  S E  E  S S E  E  S    S E  E  S S  S S S S S    S E  E  S S E  E  S  
----------------------|-------------------------|----------------------|
----------------------|-------------------------|----------------------|
----------------------|------------5h-7-7-7-7-7-|--3-3--3--3-3-3--3--3-|
--0-0--0--0-0-0--0--0-|--0-0--0--0--------------|----------------------|


  S E  E  S S E  E  S    E  S S S S E  S S S S    E  S S S S E  E  E   
----------------------|------------------------|----------------------|
----------------------|------------------------|----------------------|
--2-2--2--2-0-0--0--0-|------------------------|----------------------|
----------------------|--3--0-0-0-0-3--0-0-0-0-|--3--0-0-0-0-5--5--5--|


  E  S S S S E  S S S S    E  S S S S E   S E   S    E  S S S S E  S S S S  
------------------------|-------------------------|------------------------|
------------------------|-------------------------|------------------------|
------------------------|-----------------0-----0-|------------------------|
--3--0-0-0-0-3--0-0-0-0-|--3--0-0-0-0-5b----5b----|--3--0-0-0-0-3--0-0-0-0-|


  E  S S S S E  E  E     E  S S E  E  S S E     E  S S E  S S S S S S  
----------------------|----------------------|------------------------|
----------------------|----------------------|------------------------|
----------------------|----------------------|------------------------|
--3--0-0-0-0-5--5--5--|--0--0-0-0--0--0-0-0--|--0--0-0-0--0-0-0-0-0-0-|


  E  S S S S E  S S S S    E  S S S S E  E  E     E  S S S S E  S S S S  
------------------------|----------------------|------------------------|
------------------------|----------------------|------------------------|
------------------------|----------------------|------------------------|
--3--0-0-0-0-3--0-0-0-0-|--3--0-0-0-0-5--5--5--|--3--0-0-0-0-3--0-0-0-0-|


  E  S S S S Q.        E  S S S S E  S S S S    E  S S S S E  E  E   
--------------------|------------------------|----------------------|
--------------------|------------------------|----------------------|
--------------------|------------------------|----------------------|
--3--0-0-0-0--------|--3--0-0-0-0-3--0-0-0-0-|--3--0-0-0-0-5--5--5--|


  E  S S E  E  S S E     E  S S E  S S S S S S      S S S S S S S S S S S S  
----------------------|------------------------||---------------------------|
----------------------|------------------------||*--------------------------|
----------------------|------------------------||*--------------------------|
--0--0-0-0--0--0-0-0--|--0--0-0-0--0-0-0-0-0-0-||---8-8-8-8-8-8-8-8-8-8-8-8-|


  S S S S S S S S S S S S    S S S S S S S S S S S S  
--------------------------|--------------------------|
--------------------------|--------------------------|
--------------------------|--------------------------|
--0-0-0-0-0-0-0-0-0-0-0-0-|--8-8-8-8-8-8-8-8-8-8-8-8-|


  S S S S S S S S S S S S    S S S S S S S S S S S S  
--------------------------|--------------------------|
--------------------------|--------------------------|
--------------------------|--------------------------|
--0-0-0-0-0-0-0-0-0-0-0-0-|--8-8-8-8-8-8-8-8-8-8-8-8-|


  S S S S S S S S S S S S    S S S S S S S S S S S S  
--------------------------|--------------------------|
--------------------------|--------------------------|
--------------------------|--------------------------|
--0-0-0-0-0-0-0-0-0-0-0-0-|--6-6-6-6-6-6-6-6-6-6-6-6-|


  S S S S S S S S S S S S      E  T T T T T T T T E  T T T T T T T T  
---------------------------||----------------------------------------|
--------------------------*||----------------------------------------|
--------------------------*||----------------------------------------|
--6-6-6-6-6-6-6-6-6-6-6-6--||--6--6-6-6-6-6-6-6-6-6--6-6-6-6-6-6-6-6-|


  E  T T T T T T T T S E  E  S    E  H        E    
-------------------------------|-----------------||
-------------------------------|-----------------||
-------------------------------|-----------------||
--6--6-6-6-6-6-6-6-6-6-6--6--6-|--6--------------||




Duration Legend
---------------
W - whole
H - half
Q - quarter
E - 8th
S - 16th
T - 32nd
X - 64th
. - note dotted
|-n-|  - n-tuplets


Tablature Legend
----------------
L - tied note
x - dead note
g - grace note
(n) - ghost note
> - accentuded note
NH - natural harmonic
AH - artificial harmonic
TH - tapped harmonic
SH - semi harmonic
PH - pitch harmonic
h - hammer on
p - pull off
b - bend
br - bendRelease
pb - preBend
pbr - preBendRelease
brb - bendReleaseBend
\n/ - tremolo bar dip
\n - tremolo bar dive
-/n - tremolo bar Release up
/n\ - tremolo bar inverted dip
/n - tremolo bar return
-\n - tremolo bar Release down
S - shift slide
s - legato slide
/ -  slide into from below or out of upwards
\ -  slide into from above or out of downwards
~ - vibrato
W - wide vibrato
tr - trill
TP - tremolo picking
T - tapping
S - slap
P - pop
< - fade in
^ - brush up
v - brush down





Comments


Popular Devin Townsend tabs & chords
Bend It Like Bender! Chords
Ih-Ah! Chords
Away Tabs
Hyperdrive 2 Tabs
Noisy Pink Bubbles Tabs
Olives Tabs
Sunset Intro Tabs
Truth Tabs
Universe In A Ball Tabs
Back Where We Belong Ukulele


Song lyrics



↑ Back to top | Tablatures and chords are parodies/interpretations of the original songs. You may use it for private study, scholarship, research or language learning purposes only
© 2014 AZChords.com Contact us | Privacy policy | DMCA | Add/correct tabs | Request tabs | Top 50 tabs