» » »

Devin Townsend, Slow Me DownIntro Tabs (ver.1)

Artists:  A B C D E F G H I J K L M N O P Q R S T U V W X Y Z # 

Slow Me DownIntro Tabs (ver.1)

Devin Townsend Tabs
 Rating:
4/5 (4 votes)
Slow Me DownIntro lessons Tabs too difficult? Try these video lessons and learn fast
                (C G C G C E) - Both Guitars


    Q=160 
   4/4 
||---------------------|--------------------| 
||o--------------------|--------------------| 
||--5-5-5-7-7-7-9b10r9-|-5-5-5-7-7-7-9b10r9-| 
||---------------------|--------------------| 
||o--------------------|--------------------| 
||---------------------|--------------------| 


                      1. 
|--------------------|---------------------|| 
|--------------------|--------------------o|| 
|-5-5-5-7-7-7-9b10r9-|-5-5-5-7-7-7-9b10r9--|| 
|--------------------|---------------------|| 
|--------------------|--------------------o|| 
|--------------------|---------------------|| 

Enter Guitar 2
  2. 
|----------------------|------------------|-----------------|-----------------| 
|----------------------|------------------|-----------------|-----------------| 
|-5-5-5-7-7-7-9b10r(9)-|------5-----5-----|-4-4S5-----5-----|-4-4S5-----5-----| 
|----------------------|------------------|-----------------|-----------------| 
|----------------------|------5-----5-----|-4-4S5-----5-----|-4-4S5-----5-----| 
|----------------------|-12\----0-0---0-0-|-------0-0---0-0-|-------0-0---0-0-| 
| 
| Gtr II 
|----------------------|------------------|-----------------|-----------------| 
|----------------------|------------------|-----------------|-----------------| 
|----------------------|------5-----5-----|-4-4S5-----5-----|-4-4S5-----5-----| 
|----------------------|------------------|-----------------|-----------------| 
|----------------------|------5-----5-----|-4-4S5-----5-----|-4-4S5-----5-----| 
|----------------------|-12\----0-0---0-0-|-------0-0---0-0-|-------0-0---0-0-| 


|-----------------|-----------------|-----------------|-----------------| 
|-----------------|-----------------|-----------------|-----------------| 
|-4-4S5-----5-----|-4-4S5-----5-----|-4-4S5-----5-----|-4-4S5-----5-----| 
|-----------------|-----------------|-----------------|-----------------| 
|-4-4S5-----5-----|-4-4S5-----5-----|-4-4S5-----5-----|-4-4S5-----5-----| 
|-------0-0---0-0-|-------0-0---0-0-|-------0-0---0-0-|-------0-0---0-0-| 
| 
| Gtr II 
|-----------------|-----------------|-----------------|-----------------| 
|-----------------|-----------------|-----------------|-----------------| 
|-4-4S5-----5-----|-8-8S9-----9-----|-8-8S9-----9-----|-8-8S9-----9-----| 
|-----------------|-----------------|-----------------|-----------------| 
|-4-4S5-----5-----|-8-8S9-----9-----|-8-8S9-----9-----|-8-8S9-----9-----| 
|-------0-0---0-0-|-------0-0---0-0-|-------0-0---0-0-|-------0-0---0-0-| 


|-----------------|--------------------|---------|-----| 
|-----------------|--------------------|---------|-----| 
|-4-4S5-----5-----|--------------------|---------|-----| 
|-----------------|--------------------|---------|-----| 
|-4-4S5-----5-----|--------------------|---------|-----| 
|-------0-0---0-0-|-[5]b5.5r(5)\-------|---------|-----| 
| 
|-----------------|--------------------|---------|-----| 
|-----------------|--------------------|---------|-----| 
|-8-8S9-----9-----|--------------------|---------|-----| 
|-----------------|--------------------|---------|-----| 
|-8-8S9-----9-----|--------------------|---------|-----| 
|-------0-0---0-0-|-[5]b5.5r(5)\-------|---------|-----| 
(To verse)
            
Submit corrections

comments powered by Disqus
↑ Back to top | Devin Townsend Tabs for Slow Me DownIntro. Lyrics for acoustic guitar and electric guitar. Tablatures and chords are parodies/interpretations of the original songs. You may use it for private study, scholarship, research or language learning purposes only