>
 >
Numbered

Numbered Guitar Tabs

Devin Townsend - Numbered chords, tabs, tablatures, lyrics

Guitar lessons | Add/correct | Request | Top 50 tabs Artists:  A B C D E F G H I J K L M N O P Q R S T U V W X Y Z 0-9

Numbered Guitar Tabs – Devin Townsend

CD, Sheet music, Poster

Do you like Numbered? Share with your friends now
Tabs
Tuning: B F# B F# B F# D#

Intro!
|------|
|------|
|------|
|------|
|------|
|--0-0-|
   . .
|-----------------------------------------|
|-----------------------------------------|
|-----------------------------------------|
|-4--4-----4--4-----4--4---3----3--4------|   x3
|-4--4-----4--4-----4--4---3----3--4------|
|------0-0------0-0------0---0-------0----|
       . .      . .      .   .       .
|----------------------------|
|----------------------------|
|----------------------------|
|-4--4-----4--4--------------|
|-4--4-----4--4-------0-2-4--|
|------0-0------0-2-4--------|
       . .      . . . . .
Chorus!
|-------------------------------------------------------------------------|
|-------------------------------------------------------------------------|
|-------------------------------------------------------------------------|
|--7-7-7-7--7-7-7-7--7-7-7--9-9-7-7-7--6-6-6-6--6-6-6--4-4-4-4--7-7-6-6-6-|
|--7-7-7-7--7-7-7-7--7-7-7--7-7-7-7-7--4-4-4-4--4-4-4--4-4-4-4--4-4-4-4-4-|
|--7-7-7-7--7-7-7-7--7-7-7--7-7-7-7-7--4-4-4-4--4-4-4--4-4-4-4--4-4-4-4-4-|

|------------------------------------------------------------------------|
|------------------------------------------------------------------------|
|------------------------------------------------------------------------|
|--6-6-6-6--6-6-6-6--6-6-6--7-7-6-6-6--6-6-6-6--6-6-7-7------------------|
|--2-2-2-2--2-2-2-2--2-2-2--2-2-2-2-2--0-0-0-0--0-0-0-0--------0-2-4---0-|
|--2-2-2-2--2-2-2-2--2-2-2--2-2-2-2-2--0-0-0-0--0-0-0-0--0-2-4-------4---|
                                                         . . . . . . .
|-------------------------------------------------------------------------|
|-------------------------------------------------------------------------|
|-------------------------------------------------------------------------|
|--7-7-7-7--7-7-7-7--7-7-7--9-9-7-7-7--6-6-6-6--6-6-6--4-4-4-4--7-7-6-6-6-|
|--7-7-7-7--7-7-7-7--7-7-7--7-7-7-7-7--4-4-4-4--4-4-4--4-4-4-4--4-4-4-4-4-|
|--7-7-7-7--7-7-7-7--7-7-7--7-7-7-7-7--4-4-4-4--4-4-4--4-4-4-4--4-4-4-4-4-|

|--------------------------------------|
|--------------------------------------|
|--------------------------------------|
|--6-6-6-6--6-6-6-6--6-6-6--7-7-6-6-6--|
|--2-2-2-2--2-2-2-2--2-2-2--2-2-2-2-2--|
|--2-2-2-2--2-2-2-2--2-2-2--2-2-2-2-2--|

Bridge!
|-----------------------------------------|
|-----------------------------------------|
|-----------------------------------------|
|----4--4-----4--4-----4--4---5----5--4---|
|----4--4-----4--4-----4--4---5----5--4---|
|0-0-------0-0------0-0------0---0------0-|
 . .       . .      . .      .   .      .
|---------------------------------|
|---------------------------------|
|---------------------------------|
|-4--4-----4--4-----4--4---5---5--|
|-4--4-----4--4-----4--4---5---5--|
|------0-0------0-0------0---0----|
       . .      . .      .   .
Verse!
|----------------------------------------------------------------------|
|----------------------------------------------------------------------|
|----------------------------------------------------------------------|
|--3-3-3-3--3-3-3-3--3-3-3-3--3-3-3-3--5-----5-----5---5-----5-----5---|
|--3-3-3-3--3-3-3-3--3-3-3-3--3-3-3-3--5-----5-----5---5-----5-----5---|
|--3-3-3-3--3-3-3-3--3-3-3-3--3-3-3-3----0-0---0-0---0---0-0---0-0---0-|
     . . .  . . . .  . . . .  . . . .    . .   . .   .   . .   . .   .
|----------------------------------------------------------------------|
|----------------------------------------------------------------------|
|----------------------------------------------------------------------|
|--3-3-3-3--3-3-3-3--3-3-3-3--3-3-3-3--5-----5-----5---4-----4-----4---|
|--3-3-3-3--3-3-3-3--3-3-3-3--3-3-3-3--5-----5-----5---5-----5-----5---|
|--3-3-3-3--3-3-3-3--3-3-3-3--3-3-3-3----0-0---0-0---0---0-0---0-0---0-|
     . . .  . . . .  . . . .  . . . .    . .   . .   .   . .   . .   .
|----------------------------------------------------------------------|
|----------------------------------------------------------------------|
|----------------------------------------------------------------------|
|--3*--3-3-3-3--3-3-3-3--3-3-3-3--3-3--5-----5-----5---5-----5-----5---|
|------3-3-3-3--3-3-3-3--3-3-3-3--3-3--5-----5-----5---5-----5-----5---|
|------3-3-3-3--3-3-3-3--3-3-3-3--3-3----0-0---0-0---0---0-0---0-0---0-|
       . . . .  . . . .  . . . .  . .    . .   . .   .   . .   . .   .
|-----------------------------------------------------------------------|
|-----------------------------------------------------------------------|
|-----------------------------------------------------------------------|
|--3-3-3-3--3-3-3-3--3-3-3-3--3-3-3-3--5-----5-----5--------------------|
|--3-3-3-3--3-3-3-3--3-3-3-3--3-3-3-3--5-----5-----5----------0-2-4---0-|
|--3-3-3-3--3-3-3-3--3-3-3-3--3-3-3-3----0-0---0-0---00-0-2-4-------4---|
     . . .  . . . .  . . . .  . . . .    . .   . .   .. . . . . . . .

Chorus x1
Bridge x1

Arpeggios! (he plays combos of these, listen and you'll figure it out)
|--------- -------------------------------|
|----------------7-11-7-------------------|
|--------------9--------9-----------------|
|---------7-11------------11-7------------|
|-------9----------------------9----------|
|--7-11--------------------------11-7-11--|

|--------- -------------------------------|
|----------------7-11-7-------------------|
|--------------8--------8-----------------|
|---------7-11------------11-7------------|
|-------8----------------------8----------|
|--7-11--------------------------11-7-11--|

|--------- -------------------------------|
|----------------7-11-7-------------------|
|--------------7--------7-----------------|
|---------7-11------------11-7------------|
|-------7----------------------7----------|
|--7-11--------------------------11-7-11--|

|----------------------------------------------|
|----------------7-11-15-11--------------------|
|--------------8------------12-----------------|
|---------7-11-----------------15-11-----------|
|-------8----------------------------12--------|
|--7-11---------------------------------15-11--|


|------------------------------------|-------|
|------------------------------------|-------|
|------------------------------------|-------|
|--4-4-4-4--4-4-4-4--4-4-4-4--4-4-4-4|-------|
|--4-4-4-4--4-4-4-4--4-4-4-4--4-4-4-4|-------|
|--4-4-4-4--4-4-4-4--4-4-4-4--4-4-4-4|-3-x48-|

Intro  x1
Chorus x1

|-----------------------------------------|
|-----------------------------------------|
|-----------------------------------------|
|-7-----4-----2-----0---------------------|
|-7-x16-4-x16-2-x16-0-x8--------0-2-4---0-|
|-7-----4-----2-----0-----0-2-4-------4---|
                          . . . . . . .
|------------------------|
|------------------------|
|------------------------|
|-7-----4-----2-----0----|
|-7-x16-4-x16-2-x16-0-x8-|
|-7-----4-----2-----0----|

|-----------------------|
|-----------------------|
|-----------------------|
|-3-----4-----3----3----|
|-3-x16-4-x16-3-x8-3----|x8
|-3-----4-----3----3----|
                   .





Comments


Popular Devin Townsend tabs & chords
Bad Devil 1 Tabs
Hyperdrive 1 Tabs
Hyperdrive 2 Tabs
Quiet Riot Tabs
Slow Me Down Intro Tabs
Things Beyond Things Tabs
Universe In A Ball Tabs
Vampira Tabs
Zto 1 Tabs
Believe Ukulele


Song lyrics



↑ Back to top | Tablatures and chords are parodies/interpretations of the original songs. You may use it for private study, scholarship, research or language learning purposes only
© 2014 AZChords.com Contact us | Privacy policy | DMCA | Add/correct tabs | Request tabs | Top 50 tabs