» » »

Devin Townsend, Let It Roll Tabs (ver.1)

Artists:  A B C D E F G H I J K L M N O P Q R S T U V W X Y Z # 

Let It Roll Tabs (ver.1)

Devin Townsend Tabs
 Rating:
4/5 (6 votes)
Let It Roll lessons Tabs too difficult? Try these video lessons and learn fast
1
                Tuning: CGCGCE
Just try to follow the vocal melody, its a very easy song once you've got the tuning figured out.

E||--------------0--0--|--0------------0---0--|--0------------0--0--| 
C||--------------0--0--|--0------------0---0--|--0------------0--0--| 
G||--------------5--7--|--9------------10--9--|--9------------5--7--| 
C||--------------0--0--|--0------------0---0--|--0------------0--0--| 
G||--------------5--7--|--9------------10--9--|--9------------5--7--| 
C||--------------0--0--|--0------------0---0--|--0------------0--0--| 



--0----0---0--0----0----|--0----0--------0--0--|--0------------0---0---| 
--0----0---0--0----0----|--0----0--------0--0--|--0------------0---0---| 
--9----10--9--7----5----|--2----9--------5--7--|--9------------10--12--| 
--0----0---0--0----0----|--0----0--------0--0--|--0------------0---0---| 
--9----10--9--7----5----|--2----9--------5--7--|--9------------10--12--| 
--0----0---0--0----0----|--0----0--------0--0--|--0------------0---0---| 



--0------------0--0--|--0----0---0--0----0----|--0----0----|--0----------------| 
--0------------0--0--|--0----0---0--0----0----|--0----0----|--0----------------| 
--9------------5--7--|--9----10--9--7----5----|--2----9----|--5----------------| 
--0------------0--0--|--0----0---0--0----0----|--0----0----|--x----------------| 
--9------------5--7--|--9----10--9--7----5----|--2----9----|--5----------------| 
--0------------0--0--|--0----0---0--0----0----|--0----0----|--5----------------| 



--0----------------|--0----------------|--0--------0--------|| 
--0----------------|--0----------------|--0--------0--------|| 
--5----------------|--5----------------|--5--------5--------|| 
-------------------|--0----------------|-----------0--------|| 
--5----------------|--5----------------|--5--------5--------|| 
--5----------------|--0----------------|--5--------0--------||
            
Submit corrections

comments powered by Disqus
↑ Back to top | Devin Townsend Tabs for Let It Roll. Lyrics for acoustic guitar and electric guitar. 1 Tablatures and chords are parodies/interpretations of the original songs. You may use it for private study, scholarship, research or language learning purposes only