» » »

Devin Townsend, Hyperdrive Tabs (ver.3)

Artists:  A B C D E F G H I J K L M N O P Q R S T U V W X Y Z # 

Hyperdrive Tabs (ver.3)

Devin Townsend Tabs
 Rating:
3.4/5 (5 votes)
Hyperdrive lessons Tabs too difficult? Try these video lessons and learn fast
1
                                                                     X8
e---------------------------------:---------------------15---------------------|
b---------------------------------:-----15------16--------------16-------16-15-|
g---------------------------------:--------------------------------------------|
d---------------------------------:--------------------------------------------|
a-3-3-3-3-3-3-3-3-3-3-3-3-3-3-3-3-:--------------------------------------------|
e-3-3-3-3-3-3-3-3-3-3-3-3-3-3-3-3-:--------------------------------------------|
b-1-1-1-1-1-1-1-1-1-1-1-1-1-1-1-1-:13-13---13-13---13-13---13-13---13-13-------|

e--------------------------------------------------------15--------------------|
b----------------------------------------15------16--------------15------16-15-|
g------------------------------------------------------------------------------|
d------------------------------------------------------------------------------|
a--8--8-8--8-10--10-6--6-6--6-6--6---------------------------------------------|
e--6--6-5--5-8---8--4--4-4--4-3--3---------------------------------------------|
b-----------------------------------13-13---13-13---13-13---13-13---13-13------|


                                                      X10
e----------------------------------:---------------------15--------------------|
b----------------------------------:-----15------16--------------15------16-15-|
g----------------------------------:-------------------------------------------|
d----------------------------------:-------------------------------------------|
a--8--8-8--8-10--10-6--6-6--6-6--6-:-------------------------------------------|
e--6--6-5--5-8---8--4--4-4--4-3--3-:-------------------------------------------|
b----------------------------------:13-13---13-13---13-13---13-13---13-13------|

e-----------------------------------------------------------------|
b-----------------------------------------------------------------|
g-----------------------------------------------------------------|
d------------------------------------------------------------1010-|
a-------------------------------------------------------------88--|
e-8-8-8-8-8-8-8-8-8-8-8-8-8-8-8-8-8-8-8-8-8-8-8-8-8-8-8-8-8-8-----|
b-6-6-6-6-6-6-6-6-6-6-6-6-6-6-6-6-6-6-6-6-6-6-6-6-6-6-6-6-6-6-----|

e--------------------------------------------------------------|
b--------------------------------------------------------------|
g--------------------------------------------------------------|
d------8-8-----8-8-----8-----88-------8-8-----8-8-----8-----88-|
a------8-8-----8-8-----8-----88-------8-8-----8-8-----8-----88-|
e------8-8-----8-8-----8-----88-------8-8-----8-8-----8-----88-|
b-6-6--6-6--6--6-6--6--6--6--66--6-6--6-6--6--6-6--6--6--6--66-|

e--------------------------------------------------------------|
b--------------------------------------------------------------|
g--------------------------------------------------------------|
d--------------------------------------------------------------|
a-----5---6-----5---6---6-6-6-6------5---6-----5---6---6-6-6-6-|
e--------------------------------------------------------------|
b-6-6---6---6-6---6---6----------6-6---6---6-6---6---6---------|

e--------------------------------------------------------------|
b--------------------------------------------------------------|
g--------------------------------------------------------------|
d------8-8-----8-8-----8-----88-------8-8-----8-8-----8-----88-|
a------8-8-----8-8-----8-----88-------8-8-----8-8-----8-----88-|
e------8-8-----8-8-----8-----88-------8-8-----8-8-----8-----88-|
b-6-6--6-6--6--6-6--6--6--6--66--6-6--6-6--6--6-6--6--6--6--66-|

e-------------------------------------------------------------|
b-------------------------------------------------------------|
g-------------------------------------------------------------|
d-8-----------------------------------------------------------|
a-8-----------------------------------------------------------|
e---8-8-8-8-8-8-8-8-8-8-8-8-8-8-8-8---------------------------|
b---6-6-6-6-6-6-6-6-6-6-6-6-6-6-6-6---------------------------|


                 X8
e---------------------15--------------------:
b-----15------16--------------16-------16-15:
g-------------------------------------------:
d-------------------------------------------:
a-------------------------------------------:
e-------------------------------------------:
b13-13---13-13---13-13---13-13---13-13------:

e--------------------------------------------------------15--------------------|
b----------------------------------------15------16--------------15------16-15-|
g------------------------------------------------------------------------------|
d------------------------------------------------------------------------------|
a--8--8-8--8-10--10-6--6-6--6-6--6---------------------------------------------|
e--6--6-5--5-8---8--4--4-4--4-3--3---------------------------------------------|
b-----------------------------------13-13---13-13---13-13---13-13---13-13------|


                                                      X10
e----------------------------------:---------------------15--------------------|
b----------------------------------:-----15------16--------------15------16-15-|
g----------------------------------:-------------------------------------------|
d----------------------------------:-------------------------------------------|
a--8--8-8--8-10--10-6--6-6--6-6--6-:-------------------------------------------|
e--6--6-5--5-8---8--4--4-4--4-3--3-:-------------------------------------------|
b----------------------------------:13-13---13-13---13-13---13-13---13-13------|
            
Submit corrections

comments powered by Disqus
↑ Back to top | Devin Townsend Tabs for Hyperdrive. Lyrics for acoustic guitar and electric guitar. 1 Tablatures and chords are parodies/interpretations of the original songs. You may use it for private study, scholarship, research or language learning purposes only