» » »

Hyperdrive Tabs (ver.2)

Artists:  A B C D E F G H I J K L M N O P Q R S T U V W X Y Z # 

Hyperdrive Tabs (ver.2)

Devin Townsend
Rating:
2/5 (2 votes)

Hard to play? Try these video lessons and learn fast.
                
Tuning: GCGCGCE (7 String Open C)


This sounds close it may not be exact

 ***** I didn’t tab the exact rhythm for each of these parts but if
you listen to the CD there easy to figure out. 
Intro:

|-------------------------------------------------------------------|
|-------------------------------------------------------------------|
|-------------------------------------------------------------------|
|----10--10-10--10-10-10---12--12-12-12-12-12---10-10-10-10-10-10---|
|-----8---8--8---7--7--7---10--10-10-9--9---9----8--8--8--7-7---7---|
|-----8---8--8---7--7--7---10--10-10-9--9---9----8--8--8--7-7---7---|
|-------------------------------------------------------------------|

Intro 2:

Guitar 1

|------------------------------------------|
|------------------------------------------|
|------------------------------------------|
|---0--------------------------------------|
|---0--------------------------------------|
|---0~~~~~~~~~~~~~~~~~~~~~-----------------|
|------------------------------------------|


Guitar 2
This part as some palm mutes on the open low C string should be easy to get
|----------------15------------------------|
|-----14--15--------15---15--14------------|
|------------------------------------------|
|------------------------------------------|
|------------------------------------------|
|------------------------------------------|
|------------------------------------------|



Verses:
Guitar 1
|-----------------------------------------------------|
|-----------------------------------------------------|
|-----------------------------------------------------|
|-------5--5--5----3--3--3---0--0--0------------------|
|-------5--5--5----3--3--3---0--0--0------------------|
|-------5--5--5----3--3--3---0--0--0------------------|
|-----------------------------------------------------|
         *------------------------------------- PM


Guitar 2: Continues with the high notes from the second half of the intro throughout the verses

Chorus:  The chorus is the intro played X amount of times.


Bridge: Not sure on this one 

|-------------------------------------------------------------------|
|-------------------------------------------------------------------|
|-------------------------------------------------------------------|
|-5-5--5--5-----5--5---5--5-----------------------------------------|
|-5-5--5--5-----5--5---5--5----7-8-----7-8----------7--8-8-8--8--7--|
|-5-5--5--5-----5--5---5--5--00------00-------00--------------------|
|-------------------------------------------------------------------|
      



2nd half really not sure on this but its close

|---------------------------------------------------------|
|---------------------------------------------------------|
|---------------------------------------------------------|
|---------------------------------------------------------|
|------------5-7-------5-7--------5-7-7-7-5---------------|
|-------5-5-------5-5-------5-5---------------------------|
|---------------------------------------------------------|

The rest of the song repeats mostly intro and the second guitar part.
            
Hard to play? Try these video lessons and learn fast. | Correct




comments powered by Disqus
↑ Back to top | Tablatures and chords are parodies/interpretations of the original songs. You may use it for private study, scholarship, research or language learning purposes only