» » »

Devin Townsend, Gaia Tabs (ver.1)

Artists:  A B C D E F G H I J K L M N O P Q R S T U V W X Y Z # 

Gaia Tabs (ver.1)

Devin Townsend Tabs
 Rating:
4.3/5 (6 votes)
Gaia lessons Tabs too difficult? Try these video lessons and learn fast
1
                7 String Tuned to: GCGCGCE


Riff 1:

E: |--------------------------------------------------|
C: |--------------------------------------------------|
G: |--------------------------------------------------|
C: |-----0----0--------0----0--------0----0-------4b5-|
G: |---3----3---3----3----3---3----3----3---3---3-----|
C: |--------------------------------------------------|
G: |-3------------0--------------3------------0-------|

Riff 2:

E: |-------------------------------------|---------|
C: |-------------------------------------|---------|
G: |-------------------------------------|-- Last -|
C: |-------------------------------------|---------|
G: |---------3-----3-----3-----3-5-5-5-5-|-3-3-3-3-|
C: |-----0-0---0-0---0-0---0-0-----------|---------|
G: |-3/5---------------------------------|---------|
pm       * *   * *   * *   * *

Riff 3:

E: |---------------------------------|-----------|
C: |---------------------------------|-----------|
G: |---------------------------------|-----------|
C: |-------------------------4-4-4-4-|-----------|
G: |---0-----0-----0---0-----3-3-3-3-|---------5-|
C: |---------------------------------|-----7-5---|
G: |-0---0-0---0-0---0---0-0---------|-0-0-------|
pm   *   * *   * *   *   * *           * *

Riff 4:

E: |---------------------------------|
C: |---------------------------------|
G: |---------------------------------|
C: |-4-4-4-4-4-4-4-4-----------------|
G: |-3-3-3-3-3-3-3-3---0-----0-----0-|
C: |---------------------------------|
G: |-----------------0---0-0---0-0---|
pm                   *   * *   * *

Riff 5:

E: |---------------------------------|
C: |---------------------------------|
G: |---------------------------------|
C: |---------------------------------|
G: |---------------------------------|
C: |---7-----7-----7---7-----7-7-7-7-|
G: |-0---0-0---0-0---0---0-0---------|
pm   *   * *   * *   *   * *

Riff 6:

E: |-----------------------------|---|-----|-------|----|
C: |-----------------------------|---|-----|-------|----|
G: |-----------------------------|---|-----|-------|----|
C: |-----------------------------|---|-----|-------|----|
G: |-----------------------------|---|-----|-----5-|----|
C: |-----7-----7-----7-----7-----|-5-|-5---|-7-5---|-7b-|
G: |-0-0---0-0---0-0---0-0---0-0-|---|---7-|-------|----|
pm   * *   * *   * *   * *   * *

Riff 7:

E: |-------------------------------|
C: |-------------------------------|
G: |-------------------------------|
C: |-------------------------5-4---|
G: |---5-----5-----5---5---------3-|
C: |-0---0-0---0-0---0---0-0-------|
G: |-------------------------------|
pm   *   * *   * *   *   * *

Riff 8:

E: |------------------|-----------------|-----------------|-----------------------------------|----------------------------|
C: |------------------|-----------------|-----------------|-----------------------------------|----------------------------|
G: |------------------|-----------------|-----------------|-----------------------------------|----------------------------|
C: |------------------|-----------------|-----------------|-----------------------------------|----------------------------|
G: |------------------|-----------------|-----------------|-----------------------------------|----------------------------|
C: |-----7-----10-----|-5-4---7-----5-7-|-5-4---5-4---4-5-|-4-4-4-----------------------------|-12h13r12-12h13r12-12h13r12-|
G: |-0-0---0-0----0-0-|-----0---0-0-----|-----0-----0-----|-------7-7-7-5-5-5-5-3-3-3-2-3-2-2-|----------------------------|
pm   * *   * *    * *       *   * *           *     *

Riff 9:

E: |----------------------|---------------|----------------------|------------------|---------------------------|
C: |----------------------|---------------|----------------------|------------------|-----------91012-----------|
G: |----------------------|---------------|----------------------|------------------|------91012-----91012------|
C: |-9-9-9-10-10-10-7-7-7-|-9-9-9-5h7-7-7-|-14-14-14-14-14-14-14-|------------------|-91012---------------91012-|
G: |----------------------|---------------|----------------------|------------------|---------------------------|
C: |----------------------|---------------|----------------------|------------------|---------------------------|
G: |----------------------|---------------|----------------------|-0-3-2-3--5--7--9-|---------------------------|
pm     * *    *  *    * *     * *     *        *  *     *     *

Riff 10:

E: |---------------------------------------|------------------------12----------------|-13p12-13p12-13/15-|-13-|
C: |----------------7-10-9~--7-------------|------------------10-12-----12-10---------|-------------------|----|
G: |-----------7-10------------7-----------|------------9-12------------------12-9----|-------------------|----|
C: |------7-10-------------------10-7------|------10-12----------------------------12-|-------------------|----|
G: |-7-10-----------------------------10-7-|-9-12-------------------------------------|-------------------|----|
C: |---------------------------------------|------------------------------------------|-------------------|----|
G: |---------------------------------------|------------------------------------------|-------------------|----|

Riff 11:

E: |--------------------------------------------------------|------------|
C: |--------------------------------------------------------|------------|
G: |--------------------------------------------------------|------------|
C: |--------------------------------------------------------|------------|
G: |--------------------------------------------------------|------------|
C: |--------------------------------------------------------|---5b-5b-4~-|
G: |-5-5--5-5--5-5--5-5--5-5--5--3-3--3-3--3-3--3-3--3-3--3-|-0----------|
pm   * *  * *  * *  * *  * *  *  * *  * *  * *  * *  * *  *
            
Submit corrections

comments powered by Disqus
↑ Back to top | Devin Townsend Tabs for Gaia. Lyrics for acoustic guitar and electric guitar. 1 Tablatures and chords are parodies/interpretations of the original songs. You may use it for private study, scholarship, research or language learning purposes only