» » »

Coast Tabs (ver.1)

Artists:  A B C D E F G H I J K L M N O P Q R S T U V W X Y Z # 

Coast Tabs (ver.1)

Devin Townsend
Rating:
5/5 (3 votes)

Hard to play? Try these video lessons and learn fast.
                My second tab. Give me pointers.
There are 4 disctinctive riffs, all the same pattern, and 2 different fills.
Figure out where each goes.
Repeat each phrase twice.


Main Riffs
1
e--------------------------------------------------------------------------|
C--------------------------------------------------------------------------|
G------------0-------------------------------------------------------------|
C--3-0------------3-0------------3-0-3-0-----------------------------------|
G------5-0--------------5-0-----------------5-0----------------------------|
C--------------------------------------------------------------------------|

2
e--------------------------------------------------------------------------|
C--------------------------------------------------------------------------|
G------------0-------------------------------------------------------------|
C--2-0------------2-0------------2-0-2-0-----------------------------------|
G------3-0--------------3-0-----------------3-0----------------------------|
C--------------------------------------------------------------------------|


3
e--------------------------------------------------------------------------|
C--------------------------------------------------------------------------|
G--------------------------------------------------------------------------|
C--5-0-------8----5-0------------5-0-5-0-----------------------------------|
G------7-0--------------7-0-----------------7-0----------------------------|
C--------------------------------------------------------------------------|


4
e--------------------------------------------------------------------------|
C--------------------------------------------------------------------------|
G--------------------------------------------------------------------------|
C--6-0-------9----6-0------------6-0-6-0-----------------------------------|
G------8-0--------------8-0-----------------8-0----------------------------|
C--------------------------------------------------------------------------|


Fill 1
e--------------------------------------------------------------------------|
C--------------------------------------------------------------------------|
G--------------------------------------------------------------------------|
C--------------------------------------------------------------------------|
G-----5555555555555555555555555555555--------------------------------------|
C--------------------------------------------------------------------------|

Bluesy fill
e---------------------------------6----------------------------------------|
C--------------------------s7~---------------------------------------------|
G---5~--------7(8)r7~-5-------------8~---7(wide vibrato)-------------------|
C--------------------------------------------------------------------------|
G--------------------------------------------------------------------------|
C--------------------------------------------------------------------------|

Last 2 fills
e--------------------------------------------------------------------------|
C--------------------------------------------------------------------------|
G--------------------------------------------------------------------------|
C--------------------------------------------------------------------------|
G--------------------------------------------------------------------------|
C------55555555555555555555555555555555------------------------------------|
            
Hard to play? Try these video lessons and learn fast. | Correct




comments powered by Disqus
↑ Back to top | Tablatures and chords are parodies/interpretations of the original songs. You may use it for private study, scholarship, research or language learning purposes only