» » »

Devin Townsend, Away Tabs (ver.1)

Artists:  A B C D E F G H I J K L M N O P Q R S T U V W X Y Z # 

Away Tabs (ver.1)

Devin Townsend Tabs
 Rating:
4/5 (8 votes)
Away lessons Tabs too difficult? Try these video lessons and learn fast
                Band: The Devin Townsend Band

This song is pretty simple, get a nice an*log delay, a wah and a high gain amp and go to 
I was surprised no one had tabbed this song out so I decided to figure it out.

Figure A:
e|---------------------------------------------------------|
C|---------------------------------------------------------|
G|---------------------------------------------------------|
C|-------7---11--9h11-7----6h7-----------------------------|
G|-----9---9------------9------7---7-9--7h9p7--------------|
C|---9---------------------------7-------------------------|

Figure B:
e|---------------------------------------------------------|
C|---------------------------------------------------------|
G|---------------------------------------------------------|
C|-------7---11--9h11-7-------4------4---------------------|
G|-----9---9---------------7------7------------------------|
C|---9-------------------7------6--------------------------|

Repeat throughout intro and verse...then

Figure C:
e|---------------------------------------------------------|
C|---------------------------------------------------------|
G|---------7 (let ring)-----------------7h9----------------|
C|-------7-----------4/7 (let ring)---7-------4/7----------|
G|-----9----------0-----------------9--------0-------------|
C|---9----------0-----------------9--------0---------------|

Then...
e|---------------------|
C|---------------------|
G|---------------------|
C|-------6(7)6---2/4---|  X2
G|-----4--------2------|
C|---4---------2-------|

e|----------------|
C|----------------|
G|----------------|
C|-------2/4------|  X2
G|-----0----------|
C|---0------------|

e|----------------|
C|----------------|
G|----------------|
C|-------5/7/9----|  X2
G|-----5----------|
C|---5------------|

e|---------------------|
C|---------------------|
G|---------------------|
C|-------1/3-----0/2---|
G|-----1--------0------|
C|---1---------0-------|

Enjoy!
            
Submit corrections

comments powered by Disqus
↑ Back to top | Devin Townsend Tabs for Away. Lyrics for acoustic guitar and electric guitar. Tablatures and chords are parodies/interpretations of the original songs. You may use it for private study, scholarship, research or language learning purposes only