» » »

Deus, Serpentine Tabs (ver.1)

Artists:  A B C D E F G H I J K L M N O P Q R S T U V W X Y Z # 

Serpentine Tabs (ver.1)

Deus Tabs
 Rating:
4/5 (4 votes)
Serpentine lessons Tabs too difficult? Try these video lessons and learn fast
                This is a very easy song :) Basically for the intro and bridge it's just picking 2 
between the chords of D and Dm.

For the verses make a chord like this (basically a Bm of sorts):
E||-
B||3
G||4
D||-
A||2
E||-

then for second part leave the 4th where it is, lift your middle finger and move first 
to the B string.

Hope that makes sense :)


Intro:
E||2-2-2-2-2-2-2-0-1-1-1-1-1-1-1-0-2-2-2-2-2-2-2-0-----3-2-0-|
B||--------------------------------------------------0-------|
G||2-2-2-2-2-2-2-0-2-2-2-2-2-2-2-0-2-2-2-2-2-2-2-0-----------|
D||----------------------------------------------------------|
A||------------------------------------------------2---------|
E||----------------------------------------------------------|


Verse & Chorus:
E||---------------------------------------------------------|
B||3-----2-----3-----2-----3-----2--------------------------|
G||--4-----4-----4-----4-----4-----4------------------------|
D||---------------------------------------------------------|
A||2---0-0---0-2---0-0---0-2---0-0---0----------------------|
E||------------------------------------3--------------------|


Bridge:
E||2-2-2-2-2-2-2-0-1-1-1-1-1-1-1-0-3--3--3--3--0--0--3--3---|
B||--------------------------------0--0--0--0--1--1--0--0---|
G||2-2-2-2-2-2-2-0-2-2-2-2-2-2-2-0-0--0--0--0--0--0--0--0---|
D||--------------------------------0--0--0--0--2--2--0--0---|
A||--------------------------------2--2--2--2--3--3--2--2---|
E||--------------------------------3--3--3--3--x--x--3--3---|


E||2-2-2-2-2-2-2-0-1-1-1-1-1-1-1-0-3--3--3--3--0--0-|
B||--------------------------------0--0--0--0--1--1-|
G||2-2-2-2-2-2-2-0-2-2-2-2-2-2-2-0-0--0--0--0--0--0-|
D||--------------------------------0--0--0--0--2--2-|
A||--------------------------------2--2--2--2--3--3-|
E||--------------------------------3--3--3--3--x--x-|

Lyrics:
Verse:
I'm caught in the flow of things
My memory's a broken machine
This is how my day begins
This is just one day unseen

Chorus:
Let's do it serpentine any time
Let's do it right here
Let's do it serpentine I don't mind
Let's do it right here

Verse:
Is it bad that you're good for me?
Did I love you just randomly?
I'm caught in the flow of sound
And your just some melody

Chorus:
Let's do it serpentine any time
Let's do it right here
Let's do it serpentine I don't mind
Let's do it right here

Bridge:
There's a cute little litany
Put it on my shoulder
Eight 'O' clock and we agree
It makes me look much older

Verse:
Got my clockworks company
I got my dark green trenchcoat on
I'm sure it will always be
Someone staying and someone gone

Chorus:
Let's do it serpentine any time
Let's do it right here
Let's do it serpentine I don't mind
Let's do it right here
            
Submit corrections

comments powered by Disqus
↑ Back to top | Deus Tabs for Serpentine. Lyrics for acoustic guitar and electric guitar. Tablatures and chords are parodies/interpretations of the original songs. You may use it for private study, scholarship, research or language learning purposes only