>
 >
Where Are You Now

Where Are You Now Bass Tabs

Destine - Where Are You Now chords, tabs, tablatures, lyrics

Guitar lessons | Add/correct | Request | Top 50 tabs Artists:  A B C D E F G H I J K L M N O P Q R S T U V W X Y Z 0-9

Where Are You Now Bass Tabs – Destine

CD, Sheet music, Poster

Do you like Where Are You Now? Share with your friends now
Bass TabsChordsUkulele
---------------------------------------------------------------------------
        	       WHERE ARE YOU NOW  Destine
---------------------------------------------------------------------------



Tuning: standard 4-string (EADG)


Intro part I, play this two times getting louder second time
G|----------------------------------|
D|----------------------------------|
A|-4444444422222222-----------------|
E|-----------------0000000055555555-|

G|----------------------------------|
D|----------------------------------|
A|-44444444-------------------------|
E|---------444444445555555555555555-|

Intro part II
G|----------------------------------|
D|----------------------------------|
A|-44444444-------------------------|
E|---------4444444455555555555-7-7--|

Chorus
G|----------------------------------|
D|----------------------------------|
A|---------4444444422222222---------| 3x
E|-55555555----------------44444444-|

G|--------------------------------------------------|
D|--------------------------------------------------|
A|---------4444444422222222-------------------------|
E|-55555555----------------4--4444455555555555555\--|

Verse
G|----------------------------------|
D|----------------------------------|
A|-44444444442-2222-----------------|
E|-----------------00000000005-5555-|

G|----------------------------------|
D|----------------------------------|
A|-4444444444-----------------------|
E|-----------4-44445555555555555555-|

G|----------------------------------|
D|----------------------------------|
A|-4444444422222222-----------------|
E|-----------------0000000055555555-|

G|----------------------------------|
D|----------------------------------|
A|-44444444-------------------------|
E|---------444444445555555555555555-|

Pre-chorus
G|------------------|
D|------------------|
A|------------------|
E|-2-224-445-555777-|

Chorus
G|----------------------------------|
D|----------------------------------|
A|---------4444444422222222---------| 3x
E|-55555555----------------44444444-|

G|--------------------------------------------------|
D|--------------------------------------------------|
A|---------4444444422222222----------------7777-----|
E|-55555555----------------4--444445555530/----8753-|

Bridge (read closely, slight differences)
G|----------------------------------|
D|----------------------------------|
A|-444444444422222222---------------|
E|-------------------55555555555555-|

G|----------------------------------|
D|----------------------------------|
A|-44444444442222222-------7--------|
E|------------------5555555-5555555-|

G|----------------------------------|
D|----------------------------------|
A|-4444444422222222-----------------|
E|-----------------0000000055555555-|

G|------------------------------------------------------------------|
D|------------------------------------------------------------------|
A|-4~------2~----------------------4~-------------------------------|
E|-----------------0~------5~--------------4~------5~------555-7-7--|

Chorus
G|----------------------------------|
D|----------------------------------|
A|---------4444444422222222---------| 3x
E|-55555555----------------44444444-|

G|----------------------------------|
D|----------------------------------|
A|---------444444442222444466667777-|
E|-55555555-------------------------|

G|----------------------------------|
D|----------------------------------|
A|---------4-44--4-2-22--2----------|
E|-5-55--5-----------------4-44--4--|

G|----------------------------------|
D|----------------------------------|
A|---------4-44--4-2222444466667777-|
E|-5-55--5--------------------------|

G|------------------------------------|
D|------------------------------------|
A|---------4444444422222222-----------| 2x
E|-55555555----------------4444444(4)-|
     play this note only first time^

Ending
G|-----|
D|-----|
A|-----|
E|-5~~-|

| /  slide up
| ~  let ring

===========================================================================





Comments


Popular Destine tabs & chords
California Summer Bass Tabs
In Your Arms Bass Tabs
Where Are You Now Chords
In Your Arms 1 Tabs
Spiders Tabs
Stars Tabs
Stars 2 Tabs
Wait Forever Tabs
Down Ukulele
Night Skies Ukulele


Song lyrics



↑ Back to top | Tablatures and chords are parodies/interpretations of the original songs. You may use it for private study, scholarship, research or language learning purposes only
© 2014 AZChords.com Contact us | Privacy policy | DMCA | Add/correct tabs | Request tabs | Top 50 tabs