>
 >
In Your Arms

In Your Arms Guitar Tabs

Destine - In Your Arms chords, tabs, tablatures, lyrics

Guitar lessons | Add/correct | Request | Top 50 tabs Artists:  A B C D E F G H I J K L M N O P Q R S T U V W X Y Z 0-9

In Your Arms Guitar Tabs – Destine

CD, Sheet music, Poster

Do you like In Your Arms? Share with your friends now
Bass TabsTabsTabs v2
-------------------------------------------------------------------------------
-------------------------------------------------------------------------------


RATE AND COMMENT!

Tuning: Standard (eBGDAE)

Note: x’s in the bars are muted notes, this means you have to mute all other strings, 
so you can strum the whole (intro)riff. 
The rhythm you should figure out yourself, especially in verses)


Lead Guitar
Intro (Hubrecht uses octave effects, but can also be played without)

e|-x-x-x-x-x-x-x-x-x-x-x-x-x-x-x-x-x-x-x-x-x-x-x-x-x-x-x-x-x--x-|
B|-x-x-x-9-9-9-6-6-6-6-6-6-6-6-6-6-x-x-x-x-x-x-x-x-6-6-6-6-x--x-|
G|-6-6-6-x-x-x-x-x-x-x-x-x-x-x-x-x-8-8-8-8-8-8-8-8-x-x-x-x-8--6-|
D|-x-x-x-x-x-x-x-x-x-x-x-x-x-x-x-x-x-x-x-x-x-x-x-x-x-x-x-x-x--x-|
A|-x-x-x-x-x-x-x-x-x-x-x-x-x-x-x-x-x-x-x-x-x-x-x-x-x-x-x-x-x--x-|
E|-x-x-x-x-x-x-x-x-x-x-x-x-x-x-x-x-x-x-x-x-x-x-x-x-x-x-x-x-x--x-|

e|-x-x-x-x-x-x-x-x-x-x-x-x-x-x-x-x-x-x-x-x-x-x-x-x-x-x-x-x-x--x-|
B|-x-x-x-9-9-9-6-6-6-6-6-6-6-6-6-6-x-x-x-x-x-x-x-x-6-6-6-6-x--x-|
G|-6-6-6-x-x-x-x-x-x-x-x-x-x-x-x-x-8-8-8-8-8-8-8-8-x-x-x-x-5--6-|
D|-x-x-x-x-x-x-x-x-x-x-x-x-x-x-x-x-x-x-x-x-x-x-x-x-x-x-x-x-x--x-|
A|-x-x-x-x-x-x-x-x-x-x-x-x-x-x-x-x-x-x-x-x-x-x-x-x-x-x-x-x-x--x-|
E|-x-x-x-x-x-x-x-x-x-x-x-x-x-x-x-x-x-x-x-x-x-x-x-x-x-x-x-x-x--x-|

e|-x-x-x-x-x-x-x-x-x-x-x-x-x-x-x-x-x-x-x-x-x-x-x-x-x-x-x-x-x--x--x-|
B|-x-x-x-9-9-9-6-6-6-6-6-6-6-6-6-6-x-x-x-x-x-x-x-x-6-6-6-6-x--x--x-|
G|-6-6-6-x-x-x-x-x-x-x-x-x-x-x-x-x-8-8-8-8-8-8-8-8-x-x-x-x-8--6--x-|
D|-x-x-x-x-x-x-x-x-x-x-x-x-x-x-x-x-x-x-x-x-x-x-x-x-x-x-x-x-x--x--8-|
A|-x-x-x-x-x-x-x-x-x-x-x-x-x-x-x-x-x-x-x-x-x-x-x-x-x-x-x-x-x--x--x-|
E|-x-x-x-x-x-x-x-x-x-x-x-x-x-x-x-x-x-x-x-x-x-x-x-x-x-x-x-x-x--x--x-|

Verse 1

“(City lights don’t comfort) me at all..”
e|--------------------|
B|-/11-------11-9-----|
G|------10------------|
D|--------------------|
A|--------------------|
E|--------------------|

(After that you hear some vague guitar notes but I can’t hear it good enough to tab out..
I think live, Hubrecht doesn’t play those.)


“I’m out of patience..”
e|-------------13----------------------16----------------------13----------------------16|
B|-14-14-13-14----14-13-14-14-14-13-14----14-13-14-14-14-13-14----14-13-14-14-14-13-14---|
G|---------------------------------------------------------------------------------------|(x2)
D|---------------------------------------------------------------------------------------|
A|---------------------------------------------------------------------------------------|
E|---------------------------------------------------------------------------------------|

Chorus

Chorus

I don’t know if these chords are correct, 
but I think this is how they play it live
(Just strum these cords, listen to song for rhythm)

“Whoa..now where going in underground..”

e|--8--8----------|
B|--9--9--(x?)----|
G|--10-10---------|
D|----------------|
A|----------------|
E|----------------|

“Whoa..i can’t believe we’re going down..”

e|--4-4------------------|
B|--6-6--(x?)------------|
G|--6-6------------------|
D|-----------------------|
A|-----------------------|
E|-----------------------|

“..sirenes sound..”

e|--8--8----------|
B|--9--9--(x?)----|
G|--10-10---------|
D|----------------|
A|----------------|
E|----------------|

“Whoa..in your arms..”


e|--4-4------------------|
B|--6-6--(x?)------------|
G|--6-6------------------|
D|-----------------------|
A|-----------------------|
E|-----------------------|

Then directly after that comes the riff:

e|-x-x-x-x-x-x-x-x-x-x-x-x-x-x-x-x-x-x-x-x-x-x-8-8-8-x-x-x-x-x-x-x-x-x\x-|
B|-x-x-x-9-9-9-6-6-6-6-6-6-6-6-6-6-x-x-x-9-9-9-x-x-x-9-9-9-9-9-9-9-9-x\x-|
G|-6-6-6-x-x-x-x-x-x-x-x-x-x-x-x-x-6-6-6-x-x-x-x-x-x-x-x-x-x-x-x-x-x-6\--|
D|-x-x-x-x-x-x-x-x-x-x-x-x-x-x-x-x-x-x-x-x-x-x-x-x-x-x-x-x-x-x-x-x-x-x\x-|
A|-x-x-x-x-x-x-x-x-x-x-x-x-x-x-x-x-x-x-x-x-x-x-x-x-x-x-x-x-x-x-x-x-x-x\x-|
E|-x-x-x-x-x-x-x-x-x-x-x-x-x-x-x-x-x-x-x-x-x-x-x-x-x-x-x-x-x-x-x-x-x-x\x-|

Verse 2 (listen to song for rhythm)

e|-------9------9--------9---8--9-------------------9--------9------9--------9--------9-|
B|----9------9--------9--------------/11---------9--------9------9--------9--------9----|
G|------------------------------------------10------------------------------------------|
D|-8------6-------------------------------------------6------------------------6--------|
A|-----------------9-----------------------------------------9--------9-----------------|
E|--------------------------------------------------------------------------------------|


“take..me..back..to..you…” (1.45 min)

e|-13----------13----------13----------13----------16----------16----------16\-|
B|----14-13-14----14-13-14----14-13-14----14-13-14----14-13-14----14-13-14-----|
G|-----------------------------------------------------------------------------|
D|-----------------------------------------------------------------------------|
A|-----------------------------------------------------------------------------|
E|-----------------------------------------------------------------------------|

Chorus

I don’t know if these chords are correct, but I think this is how they play it live
(Just strum these cords, listen to song for rhythm)

“Whoa..now where going in underground..”

e|--8--8----------|
B|--9--9--(x?)----|
G|--10-10---------|
D|----------------|
A|----------------|
E|----------------|

“Whoa..i can’t believe we’re going down..”

e|--4-4------------------|
B|--6-6--(x?)------------|
G|--6-6------------------|
D|-----------------------|
A|-----------------------|
E|-----------------------|

“..sirenes sound..”

e|--8--8----------|
B|--9--9--(x?)----|
G|--10-10---------|
D|----------------|
A|----------------|
E|----------------|

“Whoa..in your arms..”


e|--4-4------------------|
B|--6-6--(x?)------------|
G|--6-6------------------|
D|-----------------------|
A|-----------------------|
E|-----------------------|

Bridge

e|-16----------16----------16----16----------16----------------------|
B|----14-13-14----14-13-14----13----14-13-14----14-13-14-13-14-13----|
G|----------------------------------------------------------------15-|
D|-------------------------------------------------------------------|
A|-------------------------------------------------------------------|
E|-------------------------------------------------------------------|

e|-16----------16----------16----16----------16--------------13-13----|
B|----14-13-14----14-13-14----13----14-13-14-----13-13-14-14-------14-|
G|--------------------------------------------------------------------|
D|--------------------------------------------------------------------|
A|--------------------------------------------------------------------|
E|--------------------------------------------------------------------|

e|-16----------16----------16----16----------16----------------------|
B|----14-13-14----14-13-14----13----14-13-14----14-13-14-13-14-13----|
G|----------------------------------------------------------------15-|
D|-------------------------------------------------------------------|
A|-------------------------------------------------------------------|
E|-------------------------------------------------------------------|

e|--x--x-x--x-x--x-x--x---x-x--x--x-x--x-x-|
B|--x--x-x--x-x--x-x--x---x-x--x--x-x--x-x-|
G|--x--x-x--x-x--x-x--x---x-x--x--x-x--x-x-|(x? -just strum the muted strings
D|--x--x-x--x-x--x-x--x---x-x--x--x-x--x-x-| for rhythm,listen to song)
A|--x--x-x--x-x--x-x--x---x-x--x--x-x--x-x-|
E|--x--x-x--x-x--x-x--x---x-x--x--x-x--x-x-|

Final Chorus

e|-------------------|
B|--9-9-9-9-9-9-9-9\-|
G|-------------------|
D|--6-6-6-6-6-6-6-6\-|
A|-------------------|
E|-------------------|


“Whoa..now where going in underground..”

e|--8--8----------|
B|--9--9--(x?)----|
G|--10-10---------|
D|----------------|
A|----------------|
E|----------------|

“Whoa..i can’t believe we’re going down..”

e|--4-4------------------|
B|--6-6--(x?)------------|
G|--6-6------------------|
D|-----------------------|
A|-----------------------|
E|-----------------------|

e|-16----------16----------16----16----------16----------------------|
B|----14-13-14----14-13-14----13----14-13-14----14-13-14-13-14-13----|
G|----------------------------------------------------------------15-|
D|-------------------------------------------------------------------|
A|-------------------------------------------------------------------|
E|-------------------------------------------------------------------|

e|-16----------16----------16----16----------16----------13-13----|
B|----14-13-14----14-13-14----13----14-13-14-----13-14-4-------14-|
G|----------------------------------------------------------------|
D|----------------------------------------------------------------|
A|----------------------------------------------------------------|
E|----------------------------------------------------------------|

e|-x-x-x-x-x-x-x-x-x-x-x-x-x-x-x-x-x-x-x-x-x-x-8-8-8-x-x-x-x-x-x-x-x-x-x-|
B|-x-x-x-9-9-9-6-6-6-6-6-6-6-6-6-6-x-x-x-9-9-9-x-x-x-9-9-9-9-9-9-9-9-x-x-|
G|-6-6-6-x-x-x-x-x-x-x-x-x-x-x-x-x-6-6-6-x-x-x-x-x-x-x-x-x-x-x-x-x-x-x-x-|
D|-x-x-x-x-x-x-x-x-x-x-x-x-x-x-x-x-x-x-x-x-x-x-x-x-x-x-x-x-x-x-x-x-x-x-x-|
A|-x-x-x-x-x-x-x-x-x-x-x-x-x-x-x-x-x-x-x-x-x-x-x-x-x-x-x-x-x-x-x-x-x-x-x-|
E|-x-x-x-x-x-x-x-x-x-x-x-x-x-x-x-x-x-x-x-x-x-x-x-x-x-x-x-x-x-x-x-x-x-x-x-|

e|-x-x-x-x-x-x-x-x-x-x-x-x-x-x-x-x-x-x-x-x-x-x-8-8-8-x-x-x-x-x-x-x-x-----------|
B|-x-x-x-9-9-9-6-6-6-6-6-6-6-6-6-6-x-x-x-9-9-9-x-x-x-9-9-9-9-9-9-9-9(let ring)-|
G|-6-6-6-x-x-x-x-x-x-x-x-x-x-x-x-x-6-6-6-x-x-x-x-x-x-x-x-x-x-x-x-x-x-----------|
D|-x-x-x-x-x-x-x-x-x-x-x-x-x-x-x-x-x-x-x-x-x-x-x-x-x-x-x-x-x-x-x-x-x-----------|
A|-x-x-x-x-x-x-x-x-x-x-x-x-x-x-x-x-x-x-x-x-x-x-x-x-x-x-x-x-x-x-x-x-x-----------|
E|-x-x-x-x-x-x-x-x-x-x-x-x-x-x-x-x-x-x-x-x-x-x-x-x-x-x-x-x-x-x-x-x-x-----------|

Rhythm Guitar

Intro

e|-----------------------------------------------------------------|
B|-----------------------------------------------------------------|
G|-----------------------------------------------------------------|
D|-4-4-4-4-4-4-8-8-8-8-8-8-8-8-8-8-6-6-6-6-6-6-6-6-3-3-3-3-3-3-3-3-| (x2)
A|-4-4-4-4-4-4-8-8-8-8-8-8-8-8-8-8-6-6-6-6-6-6-6-6-3-3-3-3-3-3-3-3-|
E|-2-2-2-2-2-2-6-6-6-6-6-6-6-6-6-6-4-4-4-4-4-4-4-4-1-1-1-1-1-1-1-1-|

Verse 1

e|-------------------------------------------------------|
B|-------------------------------------------------------|
G|-------------------------------------------------------|
D|-8-8-8-8---6-6-6-6---4-4-4-4---4-4-4-4---4-4-4---6-6-6-|
A|-8-8-8-8---6-6-6-6---4-4-4-4---4-4-4-4---4-4-4---6-6-6-|(x2)
E|-6-6-6-6---4-4-4-4---2-2-2-2---2-2-2-2---2-2-2---4-4-4-|
   . . .     . . .     . . .     . . .     . .     . . 

e|-----------------------------------------------------------------|
B|-----------------------------------------------------------------|
G|-----------------------------------------------------------------|
D|-8-8-8-8-8-8-8-8-8-8-8-8-8-8-8-8-6-6-6-6-6-6-6-6-6-6-6-6-6-6-6-6-|
A|-8-8-8-8-8-8-8-8-8-8-8-8-8-8-8-8-6-6-6-6-6-6-6-6-6-6-6-6-6-6-6-6-|
E|-6-6-6-6-6-6-6-6-6-6-6-6-6-6-6-6-4-4-4-4-4-4-4-4-4-4-4-4-4-4-4-4-|
   . . . . . . . . . . . . . . . . . . . . . . . . . . . . . . . . 

e|-----------------------------------------------------------|
B|-----------------------------------------------------------|
G|-----------------------------------------------------------|
D|-3-3-3-3-3-3-3-3-3-3-3-3-3-3-3-3-4-4-4-4-4-4-4-4-4/6-6-6-6-|
A|-3-3-3-3-3-3-3-3-3-3-3-3-3-3-3-3-4-4-4-4-4-4-4-4-4/6-6-6-6-|
E|-1-1-1-1-1-1-1-1-1-1-1-1-1-1-1-1-2-2-2-2-2-2-2-2-2/4-4-4-4-|
   . . . . . . . . . . . . . . . . . . . . .  

Chorus

e|-----------------------------------------------------------------|
B|-----------------------------------------------------------------|
G|-----------------------------------------------------------------|
D|-4-4-4-4-4-4-4-4-8-8-8-8-8-8-8-8-6-6-6-6-6-6-6-6-3-3-3-3-3-3-3-3-| (x3)
A|-4-4-4-4-4-4-4-4-8-8-8-8-8-8-8-8-6-6-6-6-6-6-6-6-3-3-3-3-3-3-3-3-|
E|-2-2-2-2-2-2-2-2-6-6-6-6-6-6-6-6-4-4-4-4-4-4-4-4-1-1-1-1-1-1-1-1-|



Then,slightly different ending:

e|---------------------------------------------------------x-x-x-x-|
B|---------------------------------------------------------x-x-x-x-|
G|---------------------------------------------------------x-x-x-x-|
D|-4-4-4-4-4-4-4-4-8-8-8-8-8-8-8-8-6-6-6-6-6-6-6-6-6-6-6-6-x-x-x-x-| 
A|-4-4-4-4-4-4-4-4-8-8-8-8-8-8-8-8-6-6-6-6-6-6-6-6-6-6-6-6-x-x-x-x-|
E|-2-2-2-2-2-2-2-2-6-6-6-6-6-6-6-6-4-4-4-4-4-4-4-4-4-4-4-4-x-x-x-x-|

e|------------------------------------|
B|------------------------------------|
G|------------------------------------|
D|-4-4---4-4---4/8-8---8-8---6-6---4\-|
A|-4-4---4-4---4/8-8---8-8---6-6---4\-|
E|-2-2---2-2---2/6-6---6-6---4-4---2\-|

Verse 2

Does not play until 
“(I’m losing track) can’t wait till there’s no heartbeat…”
   
e|---------------------------------------------------------------------------------|
B|---------------------------------------------------------------------------------|
G|---------------------------------------------------------------------------------|
D|-4-4-4---6-6-6---8-8-8-8-8-8-8-8-8-8-8-8-8-8-8-8-6-6-6-6-6-6-6-6-6-6-6-6-6-6-6-6-|
A|-4-4-4---6-6-6---8-8-8-8-8-8-8-8-8-8-8-8-8-8-8-8-6-6-6-6-6-6-6-6-6-6-6-6-6-6-6-6-|
E|-2-2-2---4-4-4---6-6-6-6-6-6-6-6-6-6-6-6-6-6-6-6-4-4-4-4-4-4-4-4-4-4-4-4-4-4-4-4-|
   . .     . .     . . . . . . . . . . . . . . . . . . . . . . . . . . . . . . . . 

e|---------------------------------------------------|
B|---------------------------------------------------|
G|---------------------------------------------------|
D|-3-3-3-3-3-3-3-3-3-3-3-3-3-3-3-3-4-4-4-4-4-4-4-4-4-|
A|-3-3-3-3-3-3-3-3-3-3-3-3-3-3-3-3-4-4-4-4-4-4-4-4-4-|
E|-1-1-1-1-1-1-1-1-1-1-1-1-1-1-1-1-2-2-2-2-2-2-2-2-2-|
   . . . . . . . . . . . . . . . . . . . .   

Chorus

e|-----------------------------------------------------------------|
B|-----------------------------------------------------------------|
G|-----------------------------------------------------------------|
D|-4-4-4-4-4-4-4-4-8-8-8-8-8-8-8-8-6-6-6-6-6-6-6-6-3-3-3-3-3-3-3-3-| (x4)
A|-4-4-4-4-4-4-4-4-8-8-8-8-8-8-8-8-6-6-6-6-6-6-6-6-3-3-3-3-3-3-3-3-|
E|-2-2-2-2-2-2-2-2-6-6-6-6-6-6-6-6-4-4-4-4-4-4-4-4-1-1-1-1-1-1-1-1-|

Bridge

e|---------------------------------------------------------|
B|---------------------------------------------------------|
G|---------------------------------------------------------|
D|-4-4--4-4-4--4-4-4--4-4-4--4-8-8--8-8-8--8-3-3--3-3-3--3-|
A|-4-4--4-4-4--4-4-4--4-4-4--4-8-8--8-8-8--8-3-3--3-3-3--3-|
E|-2-2--2-2-2--2-2-2--2-2-2--2-6-6--6-6-6--6-1-1--1-1-1--1-|

e|--------------------------------------------------------------|
B|--------------------------------------------------------------|
G|--------------------------------------------------------------|
D|-4-4--4-4-4--4-4-4--4-4-4--4-8-8--8-8-8--8-10-10---10-11-11-|
A|-4-4--4-4-4--4-4-4--4-4-4--4-8-8--8-8-8--8-10-10---10-11-11-|
E|-2-2--2-2-2--2-2-2--2-2-2--2-6-6--6-6-6--6-8--8----8--9--9--|

e|---------------------------------------------------------------------|
B|---------------------------------------------------------------------|
G|---------------------------------------------------------------------|
D|-4-4--4-4-4--4-4-4--4-4-4--4-8-8--8-8-8--8-6-6--6-6-6--6-4-----------|
A|-4-4--4-4-4--4-4-4--4-4-4--4-8-8--8-8-8--8-6-6--6-6-6--6-4(let ring)-|
E|-2-2--2-2-2--2-2-2--2-2-2--2-6-6--6-6-6--6-4-4--4-4-4--4-2-----------|


e|--x--x-x--x-x--x-x--x---x-x--x--x-x--x-x-|
B|--x--x-x--x-x--x-x--x---x-x--x--x-x--x-x-|
G|--x--x-x--x-x--x-x--x---x-x--x--x-x--x-x-|(x? -just strum the muted strings
D|--x--x-x--x-x--x-x--x---x-x--x--x-x--x-x-| for rhythm,listen to song)
A|--x--x-x--x-x--x-x--x---x-x--x--x-x--x-x-|
E|--x--x-x--x-x--x-x--x---x-x--x--x-x--x-x-|


Final Chorus

e|------------------|
B|------------------|
G|------------------|
D|-6-6-6-6-6-6-6-6\-|
A|-6-6-6-6-6-6-6-6\-|
E|-4-4-4-4-4-4-4-4\-|

e|-----------------------------------------------------------------|
B|-----------------------------------------------------------------|
G|-----------------------------------------------------------------|
D|-4-4-4-4-4-4-4-4-8-8-8-8-8-8-8-8-6-6-6-6-6-6-6-6-3-3-3-3-3-3-3-3-| (x2)
A|-4-4-4-4-4-4-4-4-8-8-8-8-8-8-8-8-6-6-6-6-6-6-6-6-3-3-3-3-3-3-3-3-|
E|-2-2-2-2-2-2-2-2-6-6-6-6-6-6-6-6-4-4-4-4-4-4-4-4-1-1-1-1-1-1-1-1-|

Same chords, but slightly different rhythm:

e|---------------------------------------------------|
B|---------------------------------------------------|
G|---------------------------------------------------|
D|-4-4--4-4--4-4--8-8--8-8---6-6--6-6--6-6--3-3--3-3-| 
A|-4-4--4-4--4-4--8-8--8-8---6-6--6-6--6-6--3-3--3-3-|
E|-2-2--2-2--2-2--6-6--6-6---4-4--4-4--4-4--1-1--1-1-|


e|------------------------------------------------------------------------------------------|
B|------------------------------------------------------------------------------------------|
G|------------------------------------------------------------------------------------------|
D|-4-4---4-4---4/8-8---8-8---6-6----4-4---4-4---4/8-8---8-8---6-6---------------4-----------| 
A|-4-4---4-4---4/8-8---8-8---6-6----4-4---4-4---4/8-8---8-8---6-6------------4--4(let ring)-|
E|-2-2---2-2---2/6-6---6-6---4-4----2-2---2-2---2/6-6---6-6---4-4---6-6--4-6----2-----------|


That’s it, I think it’s pretty much spot on:D

| /  slide up
| \  slide down
| .  Palmmute note
| x  Mute notes
===============================================================================





Comments


Popular Destine tabs & chords
California Summer Bass Tabs
Where Are You Now Bass Tabs
Night Skies Chords
In Your Arms 1 Tabs
Love Story Tabs
Stars 2 Tabs
Down Ukulele
Night Skies Ukulele
Wait Forever Ukulele
Where Are You Now Ukulele


Song lyrics



↑ Back to top | Tablatures and chords are parodies/interpretations of the original songs. You may use it for private study, scholarship, research or language learning purposes only
© 2014 AZChords.com Contact us | Privacy policy | DMCA | Add/correct tabs | Request tabs | Top 50 tabs