» » »

My Blind Baby Bass tabs (ver.1)

Artists:  A B C D E F G H I J K L M N O P Q R S T U V W X Y Z # 

My Blind Baby Bass tabs (ver.1)

De Staat
Rating:
5/5 (1 vote)

Hard to play? Try these video lessons and learn fast.
                Tuning: Drop D (DGCF)

Intro:

F|---| |----------|    |------------|----------|
C|---| |----------|    |------------|----------|
G|---| |----------| x6 |--------3---|----------|
D|-5-| |-3-5-0345-|    |-3-5-035--5-|-3-5-0345-|

Verse 1:

F|---| |----------|     |------------| |----------|    |------------|
C|---| |----------|     |------------| |----------|    |------------|
G|---| |----------| x14 |--------3---| |----------| x6 |--------3---|
D|-5-| |-3-5-0345-|     |-3-5-035--5-| |-3-5-0345-|    |-3-5-035--5-|

Chorus 1:

F|------------|------|---|------------|---------|------------|------------|
C|------------|------|---|------------|---------|------------|------------|
G|------------|------|---|--------3---|---------|------------|------------|
D|-[3333](x3)-|-3034-|-5-|-3-5-035--5-|-3-5-035-|-[1111](x4)-|-[5555](x4)-|

F|------------|------|---|------------|---------|------------|------------| |------|    |-----|
C|------------|------|---|------------|---------|------------|------------| |-22---|    |-22--|
G|------------|------|---|--------3---|---------|-[3333](x2)-|------------| |------| x3 |-----|
D|-[3333](x3)-|-3034-|-5-|-3-5-035--5-|-3-5-035-|------------|-[1111](x2)-| |---00-|    |---0-|

F|---------------------------------------------------------------------------|
C|-------------------------------------------------------[1771][7771][7776]5-|
G|---------------------------------------------------------------------------|
D|-[5555][1515][1555][1515][1555][1515][1555][1515][1555]--------------------|

Verse 2:
                                                                       Pre-Chorus Bridge:
F|---| |----------|     |------------| |----------|    |------------| |------------------|
C|---| |----------|     |------------| |----------|    |------------| |-5-5-5-6-7-8-9-10-|
G|---| |----------| x15 |--------3---| |----------| x6 |--------3---| |------------------|
D|-5-| |-3-5-0345-|     |-3-5-035--5-| |-3-5-0345-|    |-3-5-035--5-| |------------------|

Chorus 2:

F|------------|------|---|------------|---------|------------|------------|
C|------------|------|---|------------|---------|------------|------------|
G|------------|------|---|--------3---|---------|------------|------------|
D|-[3333](x3)-|-3034-|-5-|-3-5-035--5-|-3-5-035-|-[1111](x4)-|-[5555](x4)-|

F|------------|------|---|------------|---------|------------|------------| |------|    |-----|
C|------------|------|---|------------|---------|------------|------------| |-22---|    |-22--|
G|------------|------|---|--------3---|---------|-[3333](x2)-|------------| |------| x3 |-----|
D|-[3333](x3)-|-3034-|-5-|-3-5-035--5-|-3-5-035-|------------|-[1111](x2)-| |---00-|    |---0-|

Guitar-Solo:

F|-------------|-------------|-------------|
C|-------------|-------------|-------------| Some [5555] are played as [3555]
G|-[5555](x16)-|-------------|-[5555](x16)-|
D|-------------|-[5555](x16)-|-------------|

Intermezzo:

F|---| |-------------------|    |-----------------|------------|
C|---| |-[7777][5555]------|    |-[7777][5555]----|------------|
G|---| |-------------------| x6 |-----------------|-[5555](x8)-|
D|-5-| |-------------8885_-|    |-------------888-|------------|

F|---| |-------------------|
C|---| |-[7777][5555]------|    The 4th and 8th time the notes with the ast. are
G|---| |-------------------| x8 played on the F-string at the 5th fret.
D|-5-| |-------------8885_-|
                     ***
Chorus 3:

F|------------|------|---|------------|---------|------------|------------|
C|------------|------|---|------------|---------|------------|------------|
G|------------|------|---|--------3---|---------|------------|------------|
D|-[3333](x3)-|-3034-|-5-|-3-5-035--5-|-3-5-035-|-[1111](x4)-|-[5555](x4)-|

F|------------|------|---|------------|---------|------------|------------| |------|    |-----|
C|------------|------|---|------------|---------|------------|------------| |-22---|    |-22--|
G|------------|------|---|--------3---|---------|-[3333](x2)-|------------| |------| x3 |-----|
D|-[3333](x3)-|-3034-|-5-|-3-5-035--5-|-3-5-035-|------------|-[1111](x2)-| |---00-|    |---0-|

Outro:

F|------------------|
C|------------------|
G|-[5555](x +/-40?)-|
D|------------------|
            
Hard to play? Try these video lessons and learn fast. | Correct




comments powered by Disqus
↑ Back to top | Tablatures and chords are parodies/interpretations of the original songs. You may use it for private study, scholarship, research or language learning purposes only