» » »

Desperation Band, Here In Your Presence Chords (ver.1)

Artists:  A B C D E F G H I J K L M N O P Q R S T U V W X Y Z # 

Here In Your Presence Chords (ver.1)

Desperation Band Tabs
Rating:
4/5 (5 votes)
Here In Your Presence lessons Tabs too difficult? Try these video lessons and learn fast
                Song   : Here In Your Presence
Artist : Desperation Band
Album  : UPDATE:LIVE
Key    : D
Standard EADGBe tuning

Intro
e|----12----14----------12----14----------12-----14----------12----14--------|
B|-------15----15----------15----15----------15-----15----------15----15-----|
G|-14-------------14-14-------------14-14--------------12-12-------------12--|
D|---------------------------------------------------------------------------|
A|---------------------------------------------------------------------------|
E|---------------------------------------------------------------------------|

e|---------------------------------------------------------------------------|
B|---------------------------------------------------------------------------|
G|-14s16-16s18-18s19-19s21---12--11---11h12-11-------------------------------|
D|---------------------------------------------------------------------------|
A|---------------------------------------------------------------------------|
E|---------------------------------------------------------------------------|

Verse 1
Dsus4           D      Dsus2        D  
Found in your hands, fullness of joy  
Em7                 D/F#    G               Dsus4  D  
Every fear suddenly wiped away here in your presence  

Verse 2
Dsus4      D    Dsus2      D  
All of my gains now fade away  
Em7                 D/F#     G                 Dsus4  D
Every crown no longer on display, here in your presence  

Pre-Chorus
Bm           A                       G  
Heaven is trembling in awe of your wonders  
Bm                     A                    G  
The kings and their kingdoms are standing amazed  

Chorus
             Dsus2   D           A/C#   
Here in your presence, we are undone   
               Bm7     A                         G  
Here in your presence, heaven and earth become one  
             Dsus2   D                A/C#   
Here in your presence, all things are new  
              Bm7      A                       G   
Here in your presence, everything bows before you  

Bridge
   Bm         A          G         D/F#  
Wonderful, beautiful, glorious, matchless in every way

To Chorus
   Bm         A          G         D/F#              G   A
Wonderful, beautiful, glorious, matchless in every way
            

comments powered by Disqus
↑ Back to top | Desperation Band Chords for Here In Your Presence. Lyrics for acoustic guitar and electric guitar. Tablatures and chords are parodies/interpretations of the original songs. You may use it for private study, scholarship, research or language learning purposes only