>
 >
Here With Me

Here With Me Guitar Tabs

Descendents - Here With Me chords, tabs, tablatures, lyrics

Guitar lessons | Add/correct | Request | Top 50 tabs Artists:  A B C D E F G H I J K L M N O P Q R S T U V W X Y Z 0-9

Here With Me Guitar Tabs – Descendents

CD, Sheet music, Poster

Do you like Here With Me? Share with your friends now
ChordsTabsUkulele
Descendents- Here With Me 
*palm muted
/slide up
~hold note
Intro x4

Guitar One x4
e|---------------------------------------------------------------------------|
B|----5------5------7--------9-----------------------------------------------|
G|-6-6-6----6-6----8-8--11-11-11---------------------------------------------|
D|-6------7------9------11---------------------------------------------------|
A|-4------7------9------9----------------------------------------------------|
E|--------5------7------9----------------------------------------------------|

Guitar Two (comes in after guitar one, plays 2 times)   
e|---------------------------------------------------------------------------|
B|---------------------------------------------------------------------------|
G|--6/9---6------6/8----6----------------------------------------------------|
D|--x/x---x------x/x----x----------------------------------------------------|
A|--4/7---4------4/6----4----------------------------------------------------|
E|---------------------------------------------------------------------------|

Pre-Verse x2 (also play after second verse)
e|-------4---5----0----------------------------------------------------------|
B|-------4---5----0----------------------------------------------------------|
G|--9----4---6----1----------------------------------------------------------|
D|--9----6---7----2----------------------------------------------------------|
A|--7----6---7----2----------------------------------------------------------|
E|--7----4---5----0----------------------------------------------------------|

Verse                                                play this x2 at the end of verse 2 and 3
e|-------------------4--5--0--------------------------------4--5--0----------|
B|-------------------4--5--0--------------------------------4--5--0----------|
G|--6---4---------9--4--6--1-----*6---*4-------2--------9---4--6--1----------|
D|--6x8-4x8-7-----9--6--7--2-----*6x8-*4x8-----2-x16----9---6--7--2----------|
A|--4---2---7x16--7--6--7--2-----*4---*2-------0--------7---6--7--2----------|
E|----------5-----7--4--5--0----------------------------7---4--5--0----------|
Bridge Thing After 1st Verse
e|---------------------------------------------------------------------------|
B|---------------------------------------------------------------------------|
G|-4-------------------------------------------------------------------------|
D|-4x16----------------------------------------------------------------------|
A|-2-------------------------------------------------------------------------|
E|---------------------------------------------------------------------------|

Chorus(part after verse. There isnt really a chorus)
e|---------------------------------------------------------------------------|
B|---------------------------------------------------------------------------|
G|---------------------------------------------------------------------------|
D|-4--6--7--------9----------------------------------------------------------|
A|-4--6--7x3-----9----------------------------------------------------------|
E|-2--4--5--------7----------------------------------------------------------|




Bridge 2 play slow
e|----------------
B|----------------
G|--6---4---------
D|--6---4---7-----
A|--4---2---7-----
E|----------5-----


Outro
e|-----------------------------------------------------------------------------|
B|-----5------5----------------------------------------------------------------|
G|--6-6-6----6-6------end on---------------------------------------------------|
D|--6------7------x4----2------------------------------------------------------|
A|--4------7------------2------------------------------------------------------|
E|---------5------------0------------------------------------------------------|

Guitar Solo
e|-------------------------------------------------------------------11h12p11------|
B|-----------------/10-9-------------------10-9----------12-12-12-12----------12p9|
G|-----------------------11-9------------------11-9-8-9--11-11-11-11-----------
D|6h7p6------9/11~-----------9/11-9----------------------------------------------
A|------9-7-------------------------12p11---------------------------------------|
E|---------------------------------------12~---------------------------------|

Guitar Solo Cont.

e--12p11---------------------------------------------------------------------------
B---------12~----------------------------------------------------------------------

So it goes:
Intro
Pre-Verse
Verse
Bridge Thing After Verse 1
Verse
Chorus x2
Pre-Verse
Verse 
Chorus 
Solo w/ Chorus underneath it
Pre-Verse
Bridge2
Intro
Outro





Comments


Popular Descendents tabs & chords
Parents Bass Tabs
Tack Bass Tabs
Clean Sheets Chords
Sick-o-me Chords
We Chords
Cheer Tabs
Clean Sheets Tabs
I'm The One Tabs
Coffee Mug Ukulele
Gcf Ukulele


Song lyrics



↑ Back to top | Tablatures and chords are parodies/interpretations of the original songs. You may use it for private study, scholarship, research or language learning purposes only
© 2014 AZChords.com Contact us | Privacy policy | DMCA | Add/correct tabs | Request tabs | Top 50 tabs