» » »

Derozer, Il Viaggio Più Lungo Bass tabs (ver.1)

Artists:  A B C D E F G H I J K L M N O P Q R S T U V W X Y Z # 

Il Viaggio Più Lungo Bass tabs (ver.1)

Derozer Tabs
 Rating:
4/5 (4 votes)
Il Viaggio Più Lungo lessons Tabs too difficult? Try these video lessons and learn fast
1
                :
# intro #  %=pausa
G---%%%-----%%%---%%-|
D---%%%-----%%%---%%-|
A---%%%-----%%%---%%-|
E---%%%-2-0-%%%-2-%%-|
:
# verse # 2X  *=suona 11X  #=suona 9X
G--------------------------------------|
D--------------------------------------|
A----*-------#-------*-------#---------|
E---2-----002----4445-----005----444---|
:
# pre-chorus #  *=suona 6X  #=suona 4X
G-------------------------------------------|
D----*------*------#------#-------*------*--|
A---5------7------4----245----4--5------7---|
E-------------------------------------------|
:
# chorus #  !suona tutte le note 6X!
G--------------------------------------------------------|
D--------------------------------------------------------|
A----------5------2------4------0------2-------------4---|
E---2-----------------------------------------4----------|
:
# bridge # 2X  *=suona 13X  #=suona 3X
G-----------------------------------------------------|
D-----------------------------------------------------|
A----*--------*--------#---#---#---#---#---#---#---#--|
E---2------002------445---4---5---7---5---4---5---4---|
:
Ripeti pre-chorus, chorus 3X(finisci con la prima nota) e intro.
            
Submit corrections

comments powered by Disqus
↑ Back to top | Derozer Bass for Il Viaggio Più Lungo. Lyrics for acoustic guitar and electric guitar. 1 Tablatures and chords are parodies/interpretations of the original songs. You may use it for private study, scholarship, research or language learning purposes only