» » »

Derozer, Destino Bass tabs (ver.1)

Artists:  A B C D E F G H I J K L M N O P Q R S T U V W X Y Z # 

Destino Bass tabs (ver.1)

Derozer Tabs
 Rating:
4/5 (4 votes)
Destino lessons Tabs too difficult? Try these video lessons and learn fast
1
                :
# intro #  !suona tutte le note 12X!
G-------------------------|
D-------------------------|
A---2-----------------2---|
E---------3-----5---------|
:
# verse # X2  !suona tutte le note 12X!
G-------------------------|
D-------------------------|
A---2-----------5---------|
E---------3-----------5---|
:
# pre-chorus #         # chorus # X2  *=suona 9X  #=suona 6X 
G-------------------|  G----------------------------------------|
D-------------------|  D----*-------#----#----------------------| >La seconda volta suona
A-------------------|  A---2----4445----5-----#----#----#----#--|  l'ultima nota 1X
E---666-777-555-7---|  E---------------------5----5----7----5---|
:
Ripeti intro.
:
# bridge #  *=suona 12X
G-------------|
D----*--------|
A---5------*--|
E---------5---|
:
Ripeti verse X2, pre-chorus e chorus X2.
:
# outro #
G-----------------|
D-----------------|
A-----------------|
E---777-999-7\\---|
:
            
Submit corrections

comments powered by Disqus
↑ Back to top | Derozer Bass for Destino. Lyrics for acoustic guitar and electric guitar. 1 Tablatures and chords are parodies/interpretations of the original songs. You may use it for private study, scholarship, research or language learning purposes only