» » »

Cielo Nero Bass tabs (ver.1)

Artists:  A B C D E F G H I J K L M N O P Q R S T U V W X Y Z # 

Cielo Nero Bass tabs (ver.1)

Derozer
Rating:
0/5 (0 votes)

Hard to play? Try these video lessons and learn fast.
                :
# intro # *=play 10-12X  #=play 5-7X
G-------------------------------------------------------------------|
D-----------*-------------#---#-----------*-------------#---#-------|
A----*-----8-------*----10---8-----*-----8-------*----10---8--------|
D---5-------------5---------------5-------------5---------------5---|
:
# verse # *=play 6-8X  #=play 10X
G-|------------|2X|-------------|----------------------------------------------------|
D-|---------*-------------*-----|--------#-----------*------------#-----------*---*--|
A-|--*---7-8-------*---5-7------|--#----8------#---10-------*----8------#---10---8---|
D-|-5-----------7-8----------87-|-5-----------8---------87-5-----------8-------------|
:
Repeat intro.
:
# verse2 # *=play 10X #=play 7X
G---------------------------------|
D-------------------*-------------|
A-------*-----*----3------#-------|
D---44-5-----1-----------3---44---|
:
Repeat verse and intro.
            
Hard to play? Try these video lessons and learn fast. | Correct




comments powered by Disqus
↑ Back to top | Tablatures and chords are parodies/interpretations of the original songs. You may use it for private study, scholarship, research or language learning purposes only