» » »

Derek And The Dominos, Let It Rain Chords (ver.1)

Artists:  A B C D E F G H I J K L M N O P Q R S T U V W X Y Z # 

Let It Rain Chords (ver.1)

Derek And The Dominos Tabs
 Rating:
4/5 (4 votes)
Let It Rain lessons Tabs too difficult? Try these video lessons and learn fast
1
                Let It Rain chords
Derek and The Dominos (Delaney Bramlett/Eric Clapton) 

e|-----------------|----------------|
B|-5--5--5-3-5-8---|-8-8-8-7-8-10---|
G|---------------7-|----------------|
D|-----------------|----------------|
A|-----------------|----------------|
E|-----------------|----------------|

e|-----------------|----------------|
B|-5--5--5-3-5-8---|-8-8-8-7-8-10---|
G|---------------7-|----------------|
D|-----------------|----------------|
A|-----------------|----------------|
E|-----------------|----------------|

Or 

A G  G A


A G  G A G F#m Em *

    D               Am
The rain is falling through the mists,
   C      G       D
of sorrow that surrounded me
                    Am
The sun could never thaw away,
    C         G     D
the mist that lays around me

       D  Am        D   Am
Let it rain, let it rain,
         C         G       D
let your love rain down on me
       D  Am        D   Am
Let it rain, let it rain,
       C     G     D
let it rain, rain, rain

D                  Am
My life was like a desert flower,
C       G      D
burning in the sun
                  Am
Until I found the way to love,
    C      G         D
was harder said than done

       D  Am        D   Am
Let it rain, let it rain,
         C         G       D
let your love rain down on me
       D  Am        D   Am
Let it rain, let it rain,
       C     G     D
let it rain, rain, rain


e|-----------------|----------------|
B|-5--5--5-3-5-8---|-8-8-8-7-8-10---|
G|---------------7-|----------------|
D|-----------------|----------------|
A|-----------------|----------------|
E|-----------------|----------------|

e|-----------------|----------------|
B|-5--5--5-3-5-8---|-8-8-8-7-8-10---|
G|---------------7-|----------------|
D|-----------------|----------------|
A|-----------------|----------------|
E|-----------------|----------------|

A G  G A  2x

Solo

D              Am
Now I know the secret,
         C       G      D
there is nothing that I lack
             Am
If I give my love to you,
       C      G       D
you'll surely give it back

       D  Am        D   Am
Let it rain, let it rain,

         C         G       D
let your love rain down on me
       D  Am        D   Am
Let it rain, let it rain,
       C     G     D
let it rain, rain, rain

A G  G A  2x

e|-----------------|----------------|
B|-5--5--5-3-5-8---|-8-8-8-7-8-10---|
G|---------------7-|----------------|
D|-----------------|----------------|
A|-----------------|----------------|
E|-----------------|----------------|

e|-----------------|----------------|
B|-5--5--5-3-5-8---|-8-8-8-7-8-10---|
G|---------------7-|----------------|
D|-----------------|----------------|
A|-----------------|----------------|
E|-----------------|----------------|

Solo

A G      A  
Rain, rain  4x

Solo

A G  G A  2x

* Alternate:

Capo III

C  = A
G  = E
D  = B
Am = F#m
A  = F#

Set8
            
Submit corrections

comments powered by Disqus
↑ Back to top | Derek And The Dominos Chords for Let It Rain. Lyrics for acoustic guitar and electric guitar. 1 Tablatures and chords are parodies/interpretations of the original songs. You may use it for private study, scholarship, research or language learning purposes only