» » »

Derek And The Dominos, Layla Tabs (ver.4)

Artists:  A B C D E F G H I J K L M N O P Q R S T U V W X Y Z # 

Layla Tabs (ver.4)

Derek And The Dominos Tabs
 Rating:
4/5 (4 votes)
Layla lessons Tabs too difficult? Try these video lessons and learn fast
                (Intro)
Intro:
Guitar 1
eI-----------------------------------------------------------
BI-----------------------------------------------------------
GI-----------------------------------------------------------
DI---------3---------3xxx5xxx7---------3---------3xxx5xxx7---
AI---0h3h5---5h3h5---1xxx3xxx5---0h3h5---5h3h5---1xxx3xxx5---
EI-----------------------------------------------------------

-----------------------------------------------------------
-----------------------------------------------------------
-----------------------------------------------------------
---------3---------3xxx5xxx7---------3---------3xxx5xxx7---
---0h3h5---5h3h5---1xxx3xxx5---0h3h5---5h3h5---1xxx3xxx5---
-----------------------------------------------------------

-----------------------------------------------------------I
-----------------------------------------------------------I
-----------------------------------------------------------I
---------3---------3xxx5xxx7---------3---------3xxx5xxx6---I
---0h3h5---5h3h5---1xxx3xxx5---0h3h5---5h3h5---1xxx3xxx4---I
-----------------------------------------------------------I

Guitar 2
eI-----------------------------------------------------------
BI---------6--------------------------6----------------------
GI-----5h7---7h5h7----------------5h7---7h5h7----------------
DI---7--------------------------7----------------------------
AI-----------------------------------------------------------
EI-----------------------------------------------------------

----------13-----------15-13-12----------------13-----------
-----13h15--15h13h15------------13-15-----13h15--15h13h15---
---14-----------------------------------14------------------
------------------------------------------------------------
------------------------------------------------------------
------------------------------------------------------------

---17-15-12---------------13-----------15-13-12-------------
-----------13-15-----13h15--15h13h15-----------13-15--------
-------------------14---------------------------------------
------------------------------------------------------------
------------------------------------------------------------
------------------------------------------------------------

----------13-----------17-15-12-----------------------------I
-----13h15--15h13h15------------13-14~~~--------------------I
---14-------------------------------------------------------I
------------------------------------------------------------I
------------------------------------------------------------I
------------------------------------------------------------I

This is my second tab.
Please vote it!
//Victor from Sweden
            
Submit corrections

comments powered by Disqus
↑ Back to top | Derek And The Dominos Tabs for Layla. Lyrics for acoustic guitar and electric guitar. Tablatures and chords are parodies/interpretations of the original songs. You may use it for private study, scholarship, research or language learning purposes only