» » »

Depeche Mode, Enjoy The Silence Tabs (ver.3)

Artists:  A B C D E F G H I J K L M N O P Q R S T U V W X Y Z # 

Enjoy The Silence Tabs (ver.3)

Depeche Mode Tabs
Rating:
4/5 (4 votes)
Enjoy The Silence lessons Tabs too difficult? Try these video lessons and learn fast
                “Enjoy the Silence” by Depeche Mode


Riff 1 (0:09 - 0:25):
e|--------------------------------------------------|
B|--------------------------------------------------|
G|--------------------------------------------------|
D|-----10----12-----10---------10----12----10-------|
A|-----------------------13----------------------13-|
E|--11----11----11----11----11----11----11----11----|

e|-----------------------------------------|
B|-----------------------------------------|
G|-----------------------------------------|
D|---6---5----10---------6---5----10-------|
A|------------------13-------------------6-|
E|-8---8---11----11----8---8---11----11----|


Riff 2 (1:06 - 1:22):
e|----------------------------------------------------------------|
B|----------------------------------------------------------------|
G|----------------------------------------------------------------|
D|-----10----12-----10---------10----12----10-------/\---6-/\---5-|
A|-----------------------13----------------------13-/\-----/\-----|
E|--11----11----11----11----11----11----11----11----/\-8---/\-8---|

e|------------------------------------|
B|------------------------------------|
G|------------------------------------|
D|----10---------6-/\---5----10-------|
A|----------13-----/\---------------6-|
E|-11----11----8---/\-8---11----11----|


Riff 3 (2:16 - 2:32):
e|--------------------------------------------------|
B|--------------------------------------------------|
G|--------------------------------------------------|
D|-----10----12-----10---------10----12----10-------|
A|-----------------------13----------------------13-|
E|--11----11----11----11----11----11----11----11----|

e|-----------------------------------------|
B|-----------------------------------------|
G|-----------------------------------------|
D|---6---5----10---------6---5----10-------|
A|------------------13-------------------6-|
E|-8---8---11----11----8---8---11----11----|


Riff 4 (3:09 - 3:43):
e|---------------------------------------------------|
B|---------------------------------------------------|
G|---------------------------------------------------|
D|-----10----12-----13-------------------------------|
A|-----------------------13----13----10----13----10--|
E|--11----11----11----11----11----11----11----11-----| x4
            
Submit corrections

comments powered by Disqus
↑ Back to top | Depeche Mode Tabs for Enjoy The Silence. Lyrics for acoustic guitar and electric guitar. Tablatures and chords are parodies/interpretations of the original songs. You may use it for private study, scholarship, research or language learning purposes only