>
 >
The World Is A Thorn

The World Is A Thorn Guitar Tabs

Demon Hunter - The World Is A Thorn chords, tabs, tablatures, lyrics

Guitar lessons | Add/correct | Request | Top 50 tabs Artists:  A B C D E F G H I J K L M N O P Q R S T U V W X Y Z 0-9

The World Is A Thorn Guitar Tabs – Demon Hunter

CD, Sheet music, Poster

Do you like The World Is A Thorn? Share with your friends now
Bass TabsTabs
"The World Is A Thorn" By Demon Hunter
The Rhythm isn't always exact, but good enough so that you know what part you're playing.
The notes are 100% though.

P.S. I don't mind if you copy some of this for a powertab/guitarpro tab, but if you do 
give me a shout out lol :)
Thanks Again!

INTRO
Gtr. 1
C#-------|-------------------------------------------------|
G#-------|-------------------------------------------------|
E -------|-------------------------------------------------|
B -9-6-9-|-3----------3----------3---------6-5-3-9-6-9-----|
F#-9-6-9-|-3----------3----------3---------6-5-3-9-6-9-----|
B -9-6-9-|-3333333333333333333333333333333-6-5-3-9-6-9-----|

Gtr. 2
C#-------|---------------------------------------------|
G#-------|---------------------------------------------|
E -------|---------------------------------------------|
B -9-6-9-|-3----------3----------3---------6-5-3-9-6-9-|
F#-9-6-9-|-3----------3----------3---------6-5-3-9-6-9-|
B -9-6-9-|-3----------3----------3---------6-5-3-9-6-9-|

C#----------------------------------------------|
G#----------------------------------------------|
E ----------------------------------------------|
B --3----------3----------X\--------6-5-3-9-6-9-|
F#--3----------3----------X\--------6-5-3-9-6-9-|
B --3----------3----------X\--------6-5-3-9-6-9-|
       X\ = pick scrape

VERSE
C#-------------------------------------------------|
G#-------------------------------------------------|
E -------------------------------------------------|
B -3----------3----------3---------6-5-3-9-6-9-----|
F#-3----------3----------3---------6-5-3-9-6-9--X2-|
B -3333333333333333333333333333333-6-5-3-9-6-9-----|

C#------------------------------------------------------|
G#------------------------------------------------------|
E ------------------------------------------------------|
B -6---------6-----------6------------6-----------6-5-4-|
F#-6---------6-----------6------------6-----------6-5-4-|
B -6666666666666666666666666666666666666666666666-6-5-4-|

C#----------------------------------------------|
G#----------------------------------------------|
E ----------------------------------------------|
B -3----------3----------3---------6-5-3-9-6-9--|
F#-3----------3----------3---------6-5-3-9-6-9--|
B -3333333333333333333333333333333-6-5-3-9-6-9--|

CHORUS
Gtr. 1
C#----------------------------------|
G#----------------------------------|
E ----------------------------------|
B ----------------------------------|
F#----------------------------------|
B -333-333-333-333------------------|

C#--------------------------------------------------------------------|
G#--------------------------------------------------------------------|
E --------------------------------------------------------------------|
B -222-222-----222-222-222--------222-222-222------222-222-222----222-|
F#-222-222-----222-222-222--------222-222-222------222-222-222----222-|
B -222-222-----222-222-222--------222-222-222------222-222-222----222-|

Gtr. 2
C#----------------------------------|
G#----------------------------------|
E ----------------------------------|
B -3/-------------------------------|
F#-3/-------------------------------|
B -3/-------------------------------|

C#----------------------------------|
G#----------------------------------|
E ----------3-----------------------|
B --5-4-2-4---5-4-2-----------------|
F#----------------------------------|
B ----------------------------------|

C#----------------------------------|
G#----------------------------------|
E ----------------------------------|
B ----------------------------------|
F#----------------------------------|
B -333-333-333-333------------------|

C#----------------------------------|
G#----------------------------------|
E ----------3-----------------------|
B --5-4-2-4---5-4-2-----------------|
F#----------------------------------|
B ----------------------------------|

BREAKDOWN A
C#---------------------------------------------------------|
G#---------------------------------------------------------|
E ------------------------------------------------------8b-|
B -2-2-2---------------------------2-2-2----------------x--|
F#-2-2-2--X9-----------------------2-2-2-X9-------------6b-|
B -2-2-2---------2-2-5-8-7-5-7-----2-2-2------2-2b3b2-0----|
     . .         .                   . .      .

BREAKDOWN B
Gtr. 1
C#---------------------------------------------------------------------------|
G#---------------------------------------------------------------------------|
E ---------------------------13-13-13-13-13-13-13-13-13-13-13-13-13-13-13-13-|
B -3-2-0-3-2-0-3-2-0-3-2-0----x--x--x--x--x--x--x--x--x--x--x--x--x--x--x--x-|
F#-3-2-0-3-2-0-3-2-0-3-2-0---11-11-11-11-11-11-11-11-11-11-11-11-11-11-11-11-|
B -3-2-0-3-2-0-3-2-0-3-2-0---------------------------------------------------|

C#---------------------------------------------------|
G#---------------------------------------------------|
E ----------------------------10b---10b---10---10b---|
B -3-2-0-3-2-0-3-2-0-3-2-0-----x-----x-----x----x----|
F#-3-2-0-3-2-0-3-2-0-3-2-0-----8b----8b----8b---8b---|
B -3-2-0-3-2-0-3-2-0-3-2-0---------------------------|

Gtr. 2
C#------------------------------------------------------------|
G#------------------------------------------------------------|
E ----------------------------8-8-8-8-8-8-8-8-8-8-8-8-8-8-8-8-|
B -3-2-0-3-2-0-3-2-0-3-2-0----x-x-x-x-x-x-x-x-x-x-x-x-x-x-x-x-|
F#-3-2-0-3-2-0-3-2-0-3-2-0----6-6-6-6-6-6-6-6-6-6-6-6-6-6-6-6-|
B -3-2-0-3-2-0-3-2-0-3-2-0------------------------------------|

C#--------------------------------------------------|
G#--------------------------------------------------|
E -----------------------------6b----6b----6b---6b--|
B -3-2-0-3-2-0-3-2-0-3-2-0-----x-----x-----x----x---|
F#-3-2-0-3-2-0-3-2-0-3-2-0-----4b----4b----4b---4b--|
B -3-2-0-3-2-0-3-2-0-3-2-0--------------------------|


BREAKDOWN C
C#-------------------------------------------------|
G#-------------------------------------------------|
E -------------------------------------------------|
B -3-2-0-3-2-0-3-2-0-3-2-0-3-2-0-3-2-0-3-2-0-3-2-0-|
F#-3-2-0-3-2-0-3-2-0-3-2-0-3-2-0-3-2-0-3-2-0-3-2-0-|
B -3-2-0-3-2-0-3-2-0-3-2-0-3-2-0-3-2-0-3-2-0-3-2-0-|

END ON
C#----------------------------------|
G#----------------------------------|
E ----------------------------------|
B -0--0--0--------------------------|
F#-0--0--0--------------------------|
B -0--0--0--------------------------|





Comments


Popular Demon Hunter tabs & chords
Collapsing Bass Tabs
Heartstrings Come Undone 1 Bass Tabs
The World Is A Thorn Bass Tabs
I Am A Stone 2 Chords
Fading Away Tabs
Less Than Nothing Tabs
My Heartstrings Come Undone 1 Tabs
No Reason To Exist 2 Tabs
Science Of Lies Tabs
Storm The Gates Of Hell Tabs


Song lyrics



↑ Back to top | Tablatures and chords are parodies/interpretations of the original songs. You may use it for private study, scholarship, research or language learning purposes only
© 2014 AZChords.com Contact us | Privacy policy | DMCA | Add/correct tabs | Request tabs | Top 50 tabs