>
 >
The Wind

The Wind Guitar Tabs

Demon Hunter - The Wind chords, tabs, tablatures, lyrics

Guitar lessons | Add/correct | Request | Top 50 tabs Artists:  A B C D E F G H I J K L M N O P Q R S T U V W X Y Z 0-9

The Wind Guitar Tabs – Demon Hunter

CD, Sheet music, Poster

Do you like The Wind? Share with your friends now
Tabs
----------------------------------------------------------------------------
----------------------------------------------------------------------------

Tuning:Drop B(B,F#,B,E,G#,Db)

Two Guitars

Intro:Both Guitars

Db|------------------------------------------------------------------------|
G#|------------------------------------------------------------------------|
 E|------------------------------------------------------------------------|
 B|----8--------3-------1----------3---------5-------3-------1-------------|
F#|----8--------3-------1----------3---------5-------3-------1-------------|
 B|----8--------3-------1----------3---------5-------3-------1-------------|

Verse: Guitar 1 (muted)
(0:33) "These city lights..."
Db|---------------------------------------------------------------------|
G#|---------------------------------------------------------------------|
 E|---------------------------------------------------------------------|
 B|--5-------------0-------------1-------------0------------------------|2x
F#|--5-------------0-------------1-------------0------------------------|
 B|--5-5-5-5-5-5-5-0-0-0-0-0-0-0-1-1-1-1-1-1-1-0-0-0-0-1-1-1------------|

Guitar 2

Db|----------------------------------------------------------|
G#|----------------------------------------------------------|
 E|----12------------7-------------8--------------7----------|x2
 B|----------------------------------------------------------|
F#|----------------------------------------------------------|
 B|----------------------------------------------------------|

Both Guitars
(0:47) "December left you cold..."
Db|------------------------------------------------------------------------|
G#|------------------------------------------------------------------------|
 E|------------------------------------------------------------------------|
 B|--3------5-----1------8---------3------5------1-----8----7---8----------|
F#|--3------5-----1------8---------3------5------1-----8----5---5----------|
 B|--3------5-----1------8---------3------5------1-----8----5---5----------|


Pre-Chorus:

Guitar 1
(1:06)"Dying to care..."
Db|---------------------------------------------------------------------|
G#|---------------------------------------------------------------------|
 E|---------------------------------------------------------------------|
 B|---8------3------\\\\\\\\\\\\\--5----------3--------1--------3---1---|
F#|---8------3------\\Pickslide\\--5----------3--------1--------3---1---|
 B|---8------3------\\\\\\\\\\\\\--5----------3--------1--------3---1---|

Guitar 2
(1:06)
Db|------------------------------5-6------|
G#|--11-13-15-13-11-10-8-10-11-6-----4----|
 E|---------------------------------------|
 B|---------------------------------------|
F#|---------------------------------------|
 B|---------------------------------------|

Chorus: Both Guitars
(1:20) "But the wind...
Db|------------------------------------------------------------------|
G#|------------------------------------------------------------------|
 E|------------------------------------------------------------------|
 B|--8\3/5--5--------3--------1--------3----5-------3-------1--------|
F#|--8\3/5--5--------3--------1--------3----5-------3-------1--------|
 B|--8\3/5--5--------3--------1--------3----5-------3-------1--------|

Verse 2: Guitar 1
(1:36)
Db|---------------------------------------------------------------------|
G#|---------------------------------------------------------------------|
 E|---------------------------------------------------------------------|
 B|--5-------------0-------------1-------------0------------------------|
F#|--5-------------0-------------1-------------0------------------------|
 B|--5-5-5-5-5-5-5-0-0-0-0-0-0-0-1-1-1-1-1-1-1-0-0-0-0-1-1-1------------|

Guitar 2
(1:36)
Db|----------------------------------------------------------|
G#|----------------------------------------------------------|
 E|----12------------7-------------8--------------7----------|
 B|----------------------------------------------------------|
F#|----------------------------------------------------------|
 B|----------------------------------------------------------|

Both Guitars
(1:43)
Db|------------------------------------------|
G#|------------------------------------------|
 E|------------------------------------------|
 B|--3------5------1-----8----7---8----------|
F#|--3------5------1-----8----5---5----------|
 B|--3------5------1-----8----5---5----------|


Pre-Chorus:

Guitar 1
(1:55) "Dying to care..."
Db|---------------------------------------------------------------------|
G#|---------------------------------------------------------------------|
 E|---------------------------------------------------------------------|
 B|---8------3------\\\\\\\\\\\\\--5----------3--------1--------3---1---|
F#|---8------3------\\Pickslide\\--5----------3--------1--------3---1---|
 B|---8------3------\\\\\\\\\\\\\--5----------3--------1--------3---1---|

Chorus: Both Guitars
(2:08) "But the wind...
Db|------------------------------------------------------------------|
G#|------------------------------------------------------------------|
 E|------------------------------------------------------------------|
 B|--8\3/5--5--------3--------1--------3----5-------3-------1--------|
F#|--8\3/5--5--------3--------1--------3----5-------3-------1--------|
 B|--8\3/5--5--------3--------1--------3----5-------3-------1--------|

Db|-----------------------------------------------------------|
G#|-----------------------------------------------------------|
 E|-----------------------------------------------------------|
 B|--5--------3--------1--------3----5-------3-------1--------|
F#|--5--------3--------1--------3----5-------3-------1--------|
 B|--5--------3--------1--------3----5-------3-------1--------|


Bridge:
Both Guitars
Db|-------------------------------------------------------------------|
G#|-------------------------------------------------------------------|
 E|-------------------------------------------------------------------|
 B|--8---------3--------1--------3----5-------3-------1------3---1----|
F#|--8---------3--------1--------3----5-------3-------1------3---1----|
 B|--8---------3--------1--------3----5-------3-------1------3---1----|

Chorus: Both guitars
(3:12)
Db|-----------------------------------------------------------|
G#|-----------------------------------------------------------|
 E|-----------------------------------------------------------|
 B|--5--------3--------1--------3----5-------3-------1--------|x2
F#|--5--------3--------1--------3----5-------3-------1--------|
 B|--5--------3--------1--------3----5-------3-------1--------|

Outro: Both Guitars
(3:41)
Db|-----------------------------------------------------------|
G#|-----------------------------------------------------------|
 E|-----------------------------------------------------------|
 B|--5--------3--------1--------3----5-------3-------1--------|
F#|--5--------3--------1--------3----5-------3-------1--------|
 B|--5--------3--------1--------3----5-------3-------1--------|


************************************

| /   slide up
| \   slide down
| h   hammer-on
| p   pull-off
| ~   vibrato
| +   harmonic
| x   Mute note
| b   Bend
| pb  Pre-bend
| br  Bend release
| pbr Pre-bend release
| brb Bend release bend

************************************





Comments


Popular Demon Hunter tabs & chords
My Heartstrings Come Undone Bass Tabs
Annihilate The Corrupt Chords
Blood In The Tears 2 Tabs
Driving Nails Tabs
Fading Away Tabs
My Heartstrings Come Undone Tabs
Relentless Intolerance Tabs
Storm The Gates Of Hell Tabs
This I Know Tabs
Fading Away Ukulele


Song lyrics



↑ Back to top | Tablatures and chords are parodies/interpretations of the original songs. You may use it for private study, scholarship, research or language learning purposes only
© 2014 AZChords.com Contact us | Privacy policy | DMCA | Add/correct tabs | Request tabs | Top 50 tabs