» » »

Latest And The Last Tabs (ver.1)

Artists:  A B C D E F G H I J K L M N O P Q R S T U V W X Y Z # 

Latest And The Last Tabs (ver.1)

Demon Hunter
Rating:
4/5 (2 votes)

Tabs too difficult? Try these video lessons and learn fast.
                Band- Demon Hunter
Song- The latest And The last

0:00-36:00
          Intro
PM...... = palm mute
D||----------------------------------------|
A||----------------------------------------|
F||----------------------------------------|   play this
C||------------0-0-0--------------0-0-0-0--|   12 times
G||------------0-0-0--------------0-0-0-0--|
C||--7-6-3-0---0-0-0---7-6-0-3-0--0-0-0-0--|
PM             . . .              . . . .
      36:00-47:00
    Verse

D||------------------------------------------------------|
A||------------------------------------------------------|   play this
F||------------------------------------------------------|   2 times
C||-2---5--0--0-0-0------------2---7--0--0-0-0-----------|
G||-2---5--0--0-0-0------------2---7--0--0-0-0-----------|
C||-2---5--0--0-0-0---7-6-3-0--2---7--0--0-0-0---7-6-3-0-|
PM             .   .    .

        47:00-53:00
               Pre-Chorus


D||-----------------------------------------|
A||-----------------------------------------|
F||-----------------------------------------|
C||---0------------12-----------------------|
G||---0------------12-----------------------|
C||---0------------12-----------------------|


    53:00-1:05
   Chorus

D||-----------------------------------------|
A||-----------------------------------------|
F||-----------------------------------------|
C||----------2--------------6---------------|   2 times
G||----------2--------------6---------------|
C||---7-6-0--2-------7-6-0--6---------------|

    1:05-1:59
At this part you play everything above again. Except the intro riff
is played 4 times instead of 12 and the chorus is played 4 times instead of 2.

          1:59-2:33

D||-----------------------------------------|
A||-----------------------------------------|
F||-----------------------------------------|
C||---6----------6-4------------------------|  6 times
G||---6-x's-20?--6-4------------------------|
C||---6----------6-4------------------------|

      during the fifth and sixth times play that
     play this in the background

D||----4----6---7---6---4---6--7---6-----|
A||--------------------------------------|
F||--------------------------------------|
C||--------------------------------------|
G||--------------------------------------|
C||--------------------------------------|

      2:33-3:16

D||-----------------------------------------|
A||-----------------------------------------|
F||-----------------------------------------|
C||----------2--------------6---------------|   7 times
G||----------2--------------6---------------|
C||---7-6-0--2-------7-6-0--6---------------|

      3:16-End

D||----------------------------------------|
A||----------------------------------------|
F||----------------------------------------|   play this
C||------------0-0-0--------------0-0-0-0--|   8 times
G||------------0-0-0--------------0-0-0-0--|
C||--7-6-3-0---0-0-0---7-6-0-3-0--0-0-0-0--|
PM             . . .              . . . .
            
Tabs too difficult? Try these video lessons and learn fast.




comments powered by Disqus
↑ Back to top | Tablatures and chords are parodies/interpretations of the original songs. You may use it for private study, scholarship, research or language learning purposes only