» » »

Storm The Gates Of Hell Tabs (ver.2)

Artists:  A B C D E F G H I J K L M N O P Q R S T U V W X Y Z # 

Storm The Gates Of Hell Tabs (ver.2)

Demon Hunter
Rating:
0/5 (0 votes)

Hard to play? Try these video lessons and learn fast.
                -------------------------------------------------------------------------------
                             STORM THE GATES OF HELL - Demon Hunter
-------------------------------------------------------------------------------

Tuning: Drop D

Verse 1 
0:00         0:08
e|-----|---------------------------------|
B|-----|---------------------------------|
G|-----|---------------------------------|
D|-----|-2-3-3-3--2-3-3-3--2-3-3-3----4--|
A|-----|-2-3-3-3--2-3-3-3--2-3-3-3---5-5-|
D|-----|-2-3-3-3--2-3-3-3--2-3-3-3--4----|


e|-------------------------------------|
B|-------------------------------------|
G|-------------------------------------|
D|-2-3-3-3--2-3-3-3--2-3-3-3---4-------|
A|-2-3-3-3--2-3-3-3--2-3-3-3-----5-5*b-|
D|-2-3-3-3--2-3-3-3--2-3-3-3-----------|

e|---------------------------------|
B|---------------------------------|
G|---------------------------------|
D|-2-3-3-3--2-3-3-3--2-3-3-3----4--|
A|-2-3-3-3--2-3-3-3--2-3-3-3---5-5-|
D|-2-3-3-3--2-3-3-3--2-3-3-3--4----|

e|-----------------------------------|
B|-----------------------------------|
G|-----------------------------------|
D|-2-3-3-3--2-3-3-3--111-111-111-111-|
A|-2-3-3-3--2-3-3-3--111-111-111-111-|
D|-2-3-3-3--2-3-3-3--111-111-111-111-|
pm                   ... ... ... ...

[Repeat Verse 1 again]

Then:

Prechorus:
e|-----|---------------|
B|-----|---------------|
G|-----|---------------|
D|-5\--|-3-2-0-2--5\---|
A|-5\--|-3-2-0-2--5\---|
D|-5\--|-3-2-0-2--5\---|

Chorus:
e|--------------------------------------------|
B|--------------------------------------------|
G|--------------------------------------------|
D|-2-2-2-222--3-3-3-333--8-8-8-888--7-7-7-777--|
A|-2-2-2-222--3-3-3-333--8-8-8-888--7-7-7-777--|
D|-2-2-2-222--3-3-3-333--8-8-8-888--7-7-7-777--|
[2x]

e|-----------------------------------------|
B|-----------------------------------------|
G|-----------------------------------------|
D|-22222222--33333333--88888888--77777777--|
A|-22222222--33333333--88888888--77777777--|
D|-22222222--33333333--88888888--77777777--|
[2x]

Verse 2: Just repeat Verse 1

then:

Prechorus

then:
Chorus
At end of chorus this time, play this immediately following last 7's:
e|-------------|
B|-------------|
G|-------------|
D|-0-----------|
A|-0-[LET RING]--|
D|-0-----------|


Breakdown/Outro:
e|-----------------------------------------------------------|
B|-----------------------------------------------------------|
G|-----------------------------------------------------------|
D|-----------------------------------------------------------|
A|-0-0-0---------------------------------------10p9----------|
D|-0-0-0-10h11p10-0-0-0-10h11p10-0-0-0-11p10-0------0-10*fb--|
pm . . .          . . .          . . .       .      .
[3x]

4th time play:
e|-----------------------------------------------------------|
B|-----------------------------------------------------------|
G|-----------------------------------------------------------|
D|-----------------------------------------------------------|
A|-0-0-0---------------------------------------10p9----------|
D|-0-0-0-10h11p10-0-0-0-10h11p10-0-0-0-11p10-0------0-13*fb--|
pm . . .          . . .          . . .       .      .

Just repeat the Breakdown/Outro till finish, and there you have it!


| /  slide up
| \  slide down
| h  hammer-on
| p  pull-off
| ~  vibrato
| *  harmonic
| x  Mute note
| fb Full bend
| hb Half bend
===============================================================================
            
Hard to play? Try these video lessons and learn fast. | Correct




comments powered by Disqus
↑ Back to top | Tablatures and chords are parodies/interpretations of the original songs. You may use it for private study, scholarship, research or language learning purposes only