>
 >
Storm The Gates Of Hell

Storm The Gates Of Hell Guitar Tabs

Demon Hunter - Storm The Gates Of Hell chords, tabs, tablatures, lyrics

Guitar lessons | Add/correct | Request | Top 50 tabs Artists:  A B C D E F G H I J K L M N O P Q R S T U V W X Y Z 0-9

Storm The Gates Of Hell Guitar Tabs – Demon Hunter

CD, Sheet music, Poster

Do you like Storm The Gates Of Hell? Share with your friends now
TabsTabs v2
======================================================|
------==|STORM THE GATES OF HELL-DEMON HUNTER|==------|
======================================================|

TUNING: DROP B (B F# B E G# D#)
DIDN'T INCLUDE LEAD PARTS SORRY WILL DO

============--\\\\\\\\\\\\\\\\\\\\\\\\\\\\\\\\\\\\\\\\\\\\\\\\\\\\\\\\\\\\\
VERSE==---|================================================================
============--/////////////////////////////////////////////////////////////
	0:08
D#||:-||---------------------------------|
G#||:-||o--------------------------------|
E ||:-||---------------------------------|
B ||:-||--2-3-3-3--2-3-3-3--2-3-3-3---4--|
F#||:-||o-2-3-3-3--2-3-3-3--2-3-3-3--5-5-|
B ||:-||--2-3-3-3--2-3-3-3--2-3-3-3-4----|


D#||:--------------------------------------|
G#||:--------------------------------------|
E ||:--------------------------------------|
B ||:--2-3-3-3--2-3-3-3--2-3-3-3-4---------|
F#||:--2-3-3-3--2-3-3-3--2-3-3-3---5-[5]pb-|
B ||:--2-3-3-3--2-3-3-3--2-3-3-3-----------|


D#||:------------------------------------|
G#||:------------------------------------|
E ||:------------------------------------|
B ||:--2-3-3-3--2-3-3-3--2-3-3-3---4-----|
F#||:--2-3-3-3--2-3-3-3--2-3-3-3--5-5----|
B ||:--2-3-3-3--2-3-3-3--2-3-3-3-4-------|


			PM------------|
D#||:------------------------------------||
G#||:-----------------------------------o||
E ||:------------------------------------||
B ||:-2-3-3-3--2-3-3-3--111-111-111-111--||
F#||:-2-3-3-3--2-3-3-3--111-111-111-111-o||
B ||:-2-3-3-3--2-3-3-3--111-111-111-111--||


============--\\\\\\\\\\\\\\\\\\\\\\\\\\\\\\\\\\\\\\\\\\\\\\\\\\\\\\\\\\\\\
PRECHORUS==---|============================================================
============--/////////////////////////////////////////////////////////////

D#||:-----------------------||
G#||:-----------------------||
E ||:-----------------------||
B ||:---8\--5-4-0-4--8\-----||
F#||:---8\--5-4-0-4--8\-----||
B ||:---8\--5-4-0-4--8\-----||


============--\\\\\\\\\\\\\\\\\\\\\\\\\\\\\\\\\\\\\\\\\\\\\\\\\\\\\\\\\\\\\
CHORUS==---|===============================================================
============--/////////////////////////////////////////////////////////////

D#||:---||-------------------------------------------||
G#||:---||o-----------------------------------------o||
E ||:---||-------------------------------------------||
B ||:---||--3-3-3-333-4-4-4-444-8-8-8-888-7-7-7-777--||
F#||:---||o-3-3-3-333-4-4-4-444-8-8-8-888-7-7-7-777-o||
B ||:---||--3-3-3-333-4-4-4-444-8-8-8-888-7-7-7-777--||

					  _____________
					 |1st time
D#||:---||-------------------------------------------||
G#||:---||o-----------------------------------------o||
E ||:---||-------------------------------------------||
B ||:---||--3333-3333-4444-4444-8888-8888-7777-7777--||
F#||:---||o-3333-3333-4444-4444-8888-8888-7777-7777-o||
B ||:---||--3333-3333-4444-4444-8888-8888-7777-7777--||


============--\\\\\\\\\\\\\\\\\\\\\\\\\\\\\\\\\\\\\\\\\\\\\\\\\\\\\\\\\\\\\
POST-CHORUS==---|==========================================================
============--/////////////////////////////////////////////////////////////
    ______________________
   |2nd time
D#||:-------------------||
G#||:-------------------||
E ||:-------------------||
B ||:---2-2--2-2--2-2---||
F#||:---2-2--2-2--2-2---||
B ||:---2-2--2-2--2-2---||
	s s  s s  s s


VERSE II - PLAY VERSE I

PRE-CHORUS

CHORUS

============--\\\\\\\\\\\\\\\\\\\\\\\\\\\\\\\\\\\\\\\\\\\\\\\\\\\\\\\\\\\\\
POST-CHORUS==---|==========================================================
============--/////////////////////////////////////////////////////////////
 _________________________
|2nd time
D#||:-------------------||
G#||:-------------------||
E ||:-------------------||
B ||:---2-2--2-2--2-2---||
F#||:---2-2--2-2--2-2---||
B ||:---2-2--2-2--2-2---||
	s s  s s  s 

============--\\\\\\\\\\\\\\\\\\\\\\\\\\\\\\\\\\\\\\\\\\\\\\\\\\\\\\\\\\\\\
BREAKDOWN/OUTRO==---|======================================================
============--/////////////////////////////////////////////////////////////

4X    PM----|    PM-----|    PM-----|    PM    PM
D#||:--------------------------------------------------||
G#||:o------------------------------------------------o||
E ||:--------------------------------------------------||
B ||:---------------------------------------8p7--------||
F#||:o--0-0-0-6h8p6-------6h8p6-------8p6--------[3]--o||
B ||:---0-0-0-------0-0-0-------0-0-0-----0-----0------||

D#||:--------------------||
G#||:--------------------||
E ||:--------------------||
B ||:---333333-444444----||
F#||:---333333-444444----||
B ||:---333333-444444----||

4X    PM----|     PM----|     PM----|    PM    PM
D#||:--------------------------------------------------||
G#||:o------------------------------------------------o||
E ||:--------------------------------------------------||
B ||:---------------------------------------8p7--------||
F#||:o--0-0-0-6h8p6-------6h8p6-------8p6--------[3]--o||
B ||:---0-0-0-------0-0-0-------0-0-0-----0-----0------||

D#||:--------------------||
G#||:--------------------||
E ||:--------------------||
B ||:---333333-444444----||
F#||:---333333-444444----||
B ||:---333333-444444----||

4X    PM----|     PM----|     PM----|    PM    PM
D#||:--------------------------------------------------||
G#||:o------------------------------------------------*||
E ||:--------------------------------------------------||
B ||:---------------------------------------8p7--------||
F#||:o--0-0-0-6h8p6-------6h8p6-------8p6--------[3]--*||
B ||:---0-0-0-------0-0-0-------0-0-0-----0-----0------||


well you just stormed the gates of hell

s - staccato
[] - artificial harmonic
pb - prebend or halfbend





Comments


Popular Demon Hunter tabs & chords
The World Is A Thorn Bass Tabs
I Am A Stone Chords
Fire To My Soul 1 Tabs
My Heartstrings Come Undone 2 Tabs
My Throat Is An Open Grave Tabs
Not I Tabs
Summer Of Darkness Tabs
This I Know Tabs
Tie This Around Your Neck Tabs
One Thousand Apologies Ukulele


Song lyrics



↑ Back to top | Tablatures and chords are parodies/interpretations of the original songs. You may use it for private study, scholarship, research or language learning purposes only
© 2014 AZChords.com Contact us | Privacy policy | DMCA | Add/correct tabs | Request tabs | Top 50 tabs