>
 >
Science Of Lies

Science Of Lies Guitar Tabs

Demon Hunter - Science Of Lies chords, tabs, tablatures, lyrics

Guitar lessons | Add/correct | Request | Top 50 tabs Artists:  A B C D E F G H I J K L M N O P Q R S T U V W X Y Z 0-9

Science Of Lies Guitar Tabs – Demon Hunter

CD, Sheet music, Poster

Do you like Science Of Lies? Share with your friends now
TabsTabs v2
Science of LIes
Demon hunter
Drop B Tuning
B-F#-B-E-G#-C#
I found this tab on a christian tab site,
and it was really good, so i want to put it 

S>=slide up
palm mute=..., etc.
h=hammer on
p=pull off

Intro
C#[----------------------]
G#[----------------10----]
E [-----11-----------8-8-]
B [-1-0--x-0/0-S>0----7--]
F#[-1-0--9-0/0-S>0-------]x3
B [-1-0----0/0-S>0-------]

C#[---------------------------------------]
G#[---------------13/13/13/13/13/13/13/13-]
E [-----11---------x--x--x--x--x--x--x--x-]
B [-1-0--x-0/0-S>-11/11/11/11/11/11/11/11-]
F#[-1-0--9-0/0-S>-------------------------]
B [-1-0----0/0-S>-------------------------]
Repeat Intro


Verse 1
C#[-----------------]
G#[-----------------]
E [-7-------------8-]
B [-7--6----7--6--7-]
F#[-5--6----7--6--6-]
B [----6----7--6----]
   ..............

Then
C#[----------------]
G#[----------------]
E [-7--------------]
B [-7--6----7--6---]
F#[-5--6----7--6---]x3
B [----6----7--6---]
   ..............

Then
Gtr. 2
C#[----------------]
G#[----------------]
E [-7--------------]
B [-7--6----7--1---]
F#[-5--6----7--1---]x2
B [----6----7--1---]

Gtr. 1
C#[------------------------------------]
G#[------------------------------------]
E [----10---10--8--8--8--9--9--8--8--8-]
B [-0/7--0/7---6--6--6--7--7--8--8--8--]x2
F#[-----------6--6--6--7--7--6--6--6---]
B [------------------------------------]

Chorus
Gtr. 2
C#[------------------------]
G#[------------------------]
E [------------------------]
B [-5--5--1--3---6----6----]
F#[-5--6--1--3---4----3----]
B [-5--5--1--3---4----3----]

C#[--------------------------------------]
G#[--------------------------------------]
E [--------------------------------------]
B [-5--5--1--3---6----6--000-6----6--000-]
F#[-5--6--1--3---4----3--000-4----3--000-]
B [-5--5--1--3---4----3--000-4----3--000-]
                         ...         ...

Post-Chorus
Gtr. 1
C#[-------]
G#[-10----]
E [---8-8-]
B [----7--]
F#[-------]
B [-------]


Then
Both guitars
C#[----------------------]
G#[----------------10----]
E [-----11-----------8-8-]
B [-1-0--x-0/0-S>0----7--]
F#[-1-0--9-0/0-S>0-------]x3
B [-1-0----0/0-S>0-------]

C#[---------------------------------------]
G#[---------------13/13/13/13/13/13/13/13-]
E [-----11---------x--x--x--x--x--x--x--x-]
B [-1-0--x-0/0-S>-11/11/11/11/11/11/11/11-]
F#[-1-0--9-0/0-S>-------------------------]
B [-1-0----0/0-S>-------------------------]

Verse 2
C#[-----------------]
G#[-----------------]
E [-7-------------8-]
B [-7--6----7--6--7-]
F#[-5--6----7--6--6-]
B [----6----7--6----]
   ..............

C#[----------------]
G#[----------------]
E [-7--------------]
B [-7--6----7--6---]
F#[-5--6----7--6---]
B [----6----7--6---]
   ..............

Then
Gtr. 2
C#[----------------]
G#[----------------]
E [-7--------------]
B [-7--6----7--1---]
F#[-5--6----7--1---]x4
B [----6----7--1---]

Gtr. 1
C#[------------------------------------]
G#[------------------------------------]
E [----10---10--8--8--8--9--9--8--8--8-]
B [-0/7--0/7---6--6--6--7--7--8--8--8--]x4
F#[-----------6--6--6--7--7--6--6--6---]
B [------------------------------------]
Chorus

Bridge
Gtr. 2
C#[----------------------------------------------------]
G#[----------------------------------------------------]
E [----------------------------------------------------]
B [-0-0/0-0/0/0--0-0/0-0/0/0--0-0/0-0/0/0--0-0/0-0/0/0-]
F#[-0-0/0-0/0/0--0-0/0-0/0/0--0-0/0-0/0/0--0-0/0-0/0/0-]x2
B [-0-0/0-0/0/0--0-0/0-0/0/0--0-0/0-0/0/0--0-0/0-0/0/0-]
    . ... .....  . ... .....  . ... .....  . ... .....

Then
(Notice there's an extra guitar here.)
Gtr. 2
C#[----------------------------------------------------]
G#[----------------------------------------------------]
E [----------------------------------------------------]
B [-0-0/0-0/0/0--0-0/0-0/0/0--0-0/0-0/0/0--0-0/0-0/0/0-]
F#[-0-0/0-0/0/0--0-0/0-0/0/0--0-0/0-0/0/0--0-0/0-0/0/0-]x2
B [-0-0/0-0/0/0--0-0/0-0/0/0--0-0/0-0/0/0--0-0/0-0/0/0-]
    . ... .....  . ... .....  . ... .....  . ... .....

Gtr. 1
C#[----------------------]
G#[----------------------]
E [-10-7--8-5--7-3--5-2--]x2
B [----------------------]
F#[----------------------]
B [----------------------]

Gtr. 3
C#[---------------------]
G#[---------------------]
E [-7-------------------]
B [---7--8-5--7-3--5-2--]x2
F#[---------------------]
B [---------------------]

Then
Gtr. 2
C#[----------------------------------------------------]
G#[----------------------------------------------------]
E [----------------------------------------------------]
B [-0-0/0-0/0/0--1-1/1-1/1/1--3-3/3-3/3/3--1-1/1-1/1/1-]
F#[-0-0/0-0/0/0--1-1/1-1/1/1--3-3/3-3/3/3--1-1/1-1/1/1-]x4
B [-0-0/0-0/0/0--1-1/1-1/1/1--3-3/3-3/3/3--1-1/1-1/1/1-]
    . ... .....  . ... .....  . ... .....  . ... .....

Gtr. 1
C#[-------------------------------------------]
G#[-5/6-5/6-5-5/6-5/6-5-5/6-5/6-5-5/6-5h6p5-5-]
E [-------------------------------------------]
B [-------------------------------------------]
F#[-------------------------------------------]
B [-------------------------------------------]

C#[--------------------------------------------]
G#[-5/6-5/6-5-5/6-5/6-6-5/6-5/6-5-5/6-5h6p5----]
E [----------------------------------------7p5-]
B [--------------------------------------------]
F#[--------------------------------------------]
B [--------------------------------------------]

C#[--5--------------8h10p8------------------------11-]
G#[-6--8-6p5--------------11p10/11p10---------8/11---]
E [---------7p5---8------------------12p10-7h8-------]
B [------------7h8-----------------------------------]
F#[--------------------------------------------------]
B [--------------------------------------------------]

(Really fast)
C#[-10/10/10-------10/10/10-------11/11/11--------11/11/11---------]
G#[--------10/10/10-------10/10/10--------11/11/11--------11/11/11-]
E [----------------------------------------------------------------]
B [----------------------------------------------------------------]
F#[----------------------------------------------------------------]
B [----------------------------------------------------------------]

C#[-10/10/10--------10/10/10--------11/11/11--------11/11/11---------]
G#[---------12/12/12--------12/12/12--------11/11/11--------11/11/11-]
E [------------------------------------------------------------------]
B [------------------------------------------------------------------]
F#[------------------------------------------------------------------]
B [------------------------------------------------------------------]

Then
Gtr. 2
C#[-----------------------------------]
G#[-----10--------10--------10--------]
E [-------8-8-------8-8-------8-8-----]
B [-0/0----7--0/0----7--0/0----7--0/0-]
F#[-0/0-------0/0-------0/0-------0/0-]
B [-0/0-------0/0-------0/0-------0/0-]

Then both guitars
C#[-------------------------------------]
G#[-10--------10--------10--------10----]
E [---8-8-------8-8-------8-8-------8-8-]
B [----7--0/0----7--0/0----7--0/0----7--]
F#[-------0/0-------0/0-------0/0-------]
B [-------0/0-------0/0-------0/0-------]

Chorus



Well there ya go. its pretty good. leave comments.





Comments


Popular Demon Hunter tabs & chords
Heartstrings Come Undone Bass Tabs
My Throat Is An Open Grave 2 Bass Tabs
My Throat Is An Open Grave 3 Bass Tabs
Not I Bass Tabs
Beheaded Chords
Blood In The Tears Intro Tabs
Not I Tabs
Not Ready To Die Intro Tabs
The World Is A Thorn Tabs
Dead Flowers Ukulele


Song lyrics



↑ Back to top | Tablatures and chords are parodies/interpretations of the original songs. You may use it for private study, scholarship, research or language learning purposes only
© 2014 AZChords.com Contact us | Privacy policy | DMCA | Add/correct tabs | Request tabs | Top 50 tabs