» » »

Demon Hunter, Ribcage Tabs (ver.1)

Artists:  A B C D E F G H I J K L M N O P Q R S T U V W X Y Z # 

Ribcage Tabs (ver.1)

Demon Hunter Tabs
 Rating:
4/5 (4 votes)
Ribcage lessons Tabs too difficult? Try these video lessons and learn fast
1
                

Demon Hunter-Ribcage
Drop B Tuning B-F#-B-E-G#-C#

palm mute=..., etc.
S>=slide up
s=slide
h=hammer on
v=vibrato
p=pull off

Intro
C#[--------------------------------------------------------]
G#[--------------------------------------------------------]
E [----------------8---5s8/5s8-----------------8---5s8/5s7-]
B [-0/00/00--1S>-0-x-0-xsx/xsx--0/00/00--1S>-0-x-0-xsx/xsx-]
F#[-0/00/00--1S>-0-6-0-3s6/3s6--0/00/00--1S>-0-6-0-3s6/3s5-]x3
B [-0/00/00--1S>-0---0----------0/00/00--1S>-0---0---------]
    . .. ..                     . .. ..
Verse 1

Gtr. 2
C#[------------------------------------]
G#[------------------------------------]
E [------------------------------------]
B [-0/00/00--0/00/00--0/00/00--0/00/00-]
F#[-0/00/00--0/00/00--0/00/00--0/00/00-]x2
B [-0/00/00--0/00/00--0/00/00--0/00/00-]
    . .. ..  . .. ..  . .. ..  . .. ..
Then

Gtr. 2
C#[------------------------------------]
G#[------------------------------------]
E [------------------------------------]
B [-0/00/00--0/00/00--0/00/00--0/00/00-]
F#[-0/00/00--0/00/00--0/00/00--0/00/00-]x2
B [-0/00/00--0/00/00--0/00/00--0/00/00-]
    . .. ..  . .. ..  . .. ..  . .. ..

Gtr. 1
C#[--------------------------------------------]
G#[--------------------------------------------]
E [--------------------------------------------]
B [-7-------------7-------7-------------7------]
F#[--8/7h8/7h8/7h8-8/7h8---8/7h8/7h8/7h8-8/7h8-]x2
B [--------------------------------------------]

Pre-Chorus

Both guitars
C#[--------------------------]
G#[--------------------------]
E [--------------------------]
B [-0/0/0-1S>-0--0/0/0-1S>-0-]
F#[-0/0/0-1S>-0--0/0/0-1S>-0-]x4
B [-0/0/0-1S>-0--0/0/0-1S>-0-]

Chorus

C#[-----------------------------------]
G#[-----------------------------------]
E [-----7-----7-7------7-----10/10/10-]
B [-0-0-8-0/0-8-8--0-0-8-0/0-10/10/10-]
F#[-0-0-5-0/0-5-5--0-0-5-0/0--8--8--8-]x3
B [-0-0---0/0------0-0---0/0----------]

C#[------------------------------------------]
G#[------------------------------------------]
E [-----7-----7-7------7---------------------]
B [-0-0-8-0/0-8-8--0-0-8-0/0-3/3/3/3/3/3/3/3-]
F#[-0-0-5-0/0-5-5--0-0-5-0/0-3/3/3/3/3/3/3/3-]
B [-0-0---0/0------0-0---0/0-3/3/3/3/3/3/3/3-]

Interlude

C#[-----------------]
G#[-----------------]
E [-----------------]
B [-3h5/5-3h5/5-3h5-]
F#[-3h5/5-3h5/5-3h5-]
B [-3h5/5-3h5/5-3h5-]

Verse 2

Gtr. 2 
C#[--------------------------------------------------------------]
G#[--------------------------------------------------------------]
E [-------------7v--------------7v-------------------------------]
B [-0/00/00-3h5-----0/00/00-3h5----0/00/00-3h5/5-3h5/5-3h5-3h5/5-]
F#[-0/00/00-3h5-----0/00/00-3h5----0/00/00-3h5/5-3h5/5-3h5-3h5/5-]x2
B [-0/00/00-3h5-----0/00/00-3h5----0/00/00-3h5/5-3h5/5-3h5-3h5/5-]
    . .. ..         . .. ..        . .. .. 
 
Then

Gtr. 2
C#[--------------------------------------------------------------]
G#[--------------------------------------------------------------] 
E [-------------7v--------------7v-------------------------------]
B [-0/00/00-3h5-----0/00/00-3h5----0/00/00-3h5/5-3h5/5-3h5-3h5/5-]
F#[-0/00/00-3h5-----0/00/00-3h5----0/00/00-3h5/5-3h5/5-3h5-3h5/5-]x2
B [-0/00/00-3h5-----0/00/00-3h5----0/00/00-3h5/5-3h5/5-3h5-3h5/5-]
    . .. ..         . .. ..        . .. ..  

Gtr. 1
C#[--------------------------------------------]
G#[--------------------------------------------]
E [--------------------------------------------]
B [-7-------------7-------7-------------7------]
F#[--8/7h8/7h8/7h8-8/7h8---8/7h8/7h8/7h8-8/7h8-]x2
B [--------------------------------------------]

Pre-Chorus

Chorus

Bridge

Starts with
C#[-----]
G#[-----]
E [-----]
B [--0--]
F#[--0--]
B [--0--]

Then

    Gtr.2-- Gtr.1-- Gtr.2-- Gtr.1---- 
C#[----------------------------------]
G#[----------------------------------]
E [----------------------------------]
B [-0/00/00-0/00/00-0/00/00-0-8-0-8--]
F#[-0/00/00-0/00/00-0/00/00-0---0----]x4
B [-0/00/00-0/00/00-0/00/00-0---0----]
    . .. .. . .. .. . .. .. .   .

Then

Gtr. 2
C#[------------------]
G#[------------------]
E [------------------]
B [-10---3---5---0---]
F#[--8---3---5---0---]x2
B [--8---3---5---0---]

Then

Gtr. 2
C#[------------------]
G#[------------------]
E [------------------]
B [-10---3---5---0---]
F#[--8---3---5---0---]x2
B [--8---3---5---0---]

Gtr.1
C#[-------------------------------------------------------------8v-]
G#[----------------------------------------------------------------]
E [----------------------------------------------------------------]
B [-7/5/3/5/3/2/3p2p0-7/5/3/5/3/2/3/0-7/5/3/5/3/2/3p2p0-7/5/3/5----]
F#[----------------------------------------------------------------]
B [----------------------------------------------------------------]
        .     .           .     .         .     .           .

C#[----------------------------------------------------------------------]
G#[----------------------------------------------------------------------]
E [----------------------------------------------------------------------]
B [-7/5/3/5/3/2/3p2p0-7/5/3/5/3/2/3/0-7/5/3/5/3/2/3p2p0-7p5p0/7h10/10h12-]
F#[----------------------------------------------------------------------]
B [----------------------------------------------------------------------]
        .     .           .     .         .     .           

Interlude

Gtr. 2
C#[-----------------]
G#[-----------------]
E [-----------------]
B [-3h5/5-3h5/5-3h5-]
F#[-3h5/5-3h5/5-3h5-]
B [-3h5/5-3h5/5-3h5-]

Then both guitars
C#[-----------------]
G#[-----------------]
E [-----------------]
B [-3h5/5-3h5/5-3h5-]
F#[-3h5/5-3h5/5-3h5-]
B [-3h5/5-3h5/5-3h5-]

Chorus

Ending
C#[--------------------------------------------------------]
G#[--------------------------------------------------------]
E [----------------8---5s8/5s8-----------------8---5s8/5s7-]
B [-0/00/00--1S>-0-x-0-xsx/xsx--0/00/00--1S>-0-x-0-xsx/xsx-]
F#[-0/00/00--1S>-0-6-0-3s6/3s6--0/00/00--1S>-0-6-0-3s6/3s5-]x2
B [-0/00/00--1S>-0---0----------0/00/00--1S>-0---0---------]
    . .. ..                     . .. ..
            
Submit corrections

comments powered by Disqus
↑ Back to top | Demon Hunter Tabs for Ribcage. Lyrics for acoustic guitar and electric guitar. 1 Tablatures and chords are parodies/interpretations of the original songs. You may use it for private study, scholarship, research or language learning purposes only