>
 >
Relentless Intolerance

Relentless Intolerance Guitar Tabs

Demon Hunter - Relentless Intolerance chords, tabs, tablatures, lyrics

Guitar lessons | Add/correct | Request | Top 50 tabs Artists:  A B C D E F G H I J K L M N O P Q R S T U V W X Y Z 0-9

Relentless Intolerance Guitar Tabs – Demon Hunter

CD, Sheet music, Poster

Do you like Relentless Intolerance? Share with your friends now
Tabs

Tuning: Drop B

Intro Riff:

C#|---------------------------------------------------------------------------|
G#|---------------------------------------------------------------------------|
E |-10-10---10-10----------------10-10-----10-10------------------------------|
B |-x--x-9-9-x--x-9-(x8)-0-5-7-0--x--x-9-9--x--x-9-(x4)-----------------------|
F#|-8--8-9-9-8--8-9------0-5-7-0--8--8-9-9--8--8-9----------------------------|
B |------9-9------9------0-5-7-0-------9-9-------9----------------------------|

Verse Riff:

C#|---------------------------------------------------------------------------|
G#|---------------------------------------------------------------------------|
E |---------------------------------------------------------------------------|
B |-0-5-7-0-8-7-5-7-00000000-0-3-5-0-6-5-3-5-00-00-00-------------------------|
F#|-0-5-7-0-8-7-5-7-00000000-0-3-5-0-6-5-3-5-00-00-00-(x4)--------------------|
B |-0-5-7-0-8-7-5-7-00000000-0-3-5-0-6-5-3-5-00-00-00-------------------------|
PM                  ........                 .. .. ..

Pre-Chorus:

C#|---------------------------------------------------------------------------|
G#|---------------------------------------------------------------------------|
E |---------------------------------------------------------------------------|
B |---------------------------------------------------------------------------|
F#|---------------------------------------------------------------------------|
B |-0-5-7~-0-8-7~-0-3-5-0-3-5~-(x4)-0~-3-5-0-3-5~-(x2)-0-3-5-0-1-3-0----------|

Chorus:

C#|---------------------------------------------------------------------------|
G#|---------------------------------------------------------------------------|
E |---------------------------------------------------------------------------|
B |-8-8-3333-5-1-1111-8-8-3333-5-1-3-55-7-------------------------------------|
F#|-8-8-3333-5-1-1111-8-8-3333-5-1-3-55-7-(x2)--------------------------------|
B |-8-8-3333-5-1-1111-8-8-3333-5-1-3-55-7-------------------------------------|

Play First Intro Section Once Before Verse 2

Verse Riff x4
Pre-Chorus 
Chorus

Breakdown (Two guitar parts tabbed, Lead guitar is in (7h9), Rhythm is in 7h9):

C#|---------------------------------------------------------------------------|
G#|---------------------------------------------------------------------------|
E |-------------(7h9)---------------------------------------------------------|
B |-0~-----00-00-7h9------00-00-----------------------------------------------|
F#|-0~-----00-00-----(x7)-00-00-----------------------------------------------|
B |-0~-----00-00----------00-00-----------------------------------------------|
PM         .. ..          .. ..

Breakdown:

C#|---------------------------------------------------------------------------|
G#|---------------------------------------------------------------------------|
E |------(7h9)----------------------------------------------------------------|
B |-00-00-7h9-00-0-5-7-8-7-(x4)-----------------------------------------------|
F#|-00-00-----00-0-5-7-8-7----------------------------------------------------|
B |-00-00-----00-0-5-7-8-7----------------------------------------------------|
PM  .. ..     .. .

Solo (Rhythm Guitarist Continues Breakdown):

C#|---------------------------------------------------------------------------|
G#|---------------------------------------------------------------------------|
E |-7----7-10-9-7----7-10-9-7----7-10-9-7-------------------------------------|
B |--0--7--------0--7--------0--7--------0-7*---------------------------------|
F#|---------------------------------------------------------------------------|
B |---------------------------------------------------------------------------|

C#|---------------------------------------------------------------------------|
G#|---------------------------------------------------------------------------|
E |-7----7-10-9-7----7-10-9-7----7-10-9-7----7-10-9-7~------------------------|
B |--0--7--------0--7--------0--7--------0--7---------------------------------|
F#|---------------------------------------------------------------------------|
B |---------------------------------------------------------------------------|

Chorus (Lead plays entire chorus once, Rhythm plays twice)

Fill during 2nd half of final chorus:

C#|---------------------------------------------------------------------------|
G#|---------------------------------------------------------------------------|
E |-10-10-14-14-14-14-12-8--8-8-8-8--10-10-14-14-14-14-15-12--12-12-12-10-----|
B |--x--x--x--x--x--x--x-x--x-x-x-x---x--x--x--x--x--x--x--x---x--x--x--x-(x2)|
F#|--8--8-12-12-12-12-10-6--6-6-6-6---8--8-12-12-12-12-13-10--10-10-10--8-----|
B |---------------------------------------------------------------------------|

First Intro Section x2


| /  slide up
| \  slide down
| h  hammer-on
| p  pull-off
| ~  vibrato
| +  harmonic
| x  Mute note
| *  Pinched Harmonic





Comments


Popular Demon Hunter tabs & chords
Lifewar Bass Tabs
Driving Nails Chords
I Am A Stone Chords
A Broken Upper Hand Tabs
Blood In The Tears Intro Tabs
Fading Away Tabs
Means To An End Tabs
Driving Nails Ukulele
I Am A Stone Ukulele
Tomorrow Never Comes Ukulele


Song lyrics



↑ Back to top | Tablatures and chords are parodies/interpretations of the original songs. You may use it for private study, scholarship, research or language learning purposes only
© 2014 AZChords.com Contact us | Privacy policy | DMCA | Add/correct tabs | Request tabs | Top 50 tabs