» » »

One Thousand ApologiesIntro Tabs (ver.1)

Artists:  A B C D E F G H I J K L M N O P Q R S T U V W X Y Z # 

One Thousand ApologiesIntro Tabs (ver.1)

Demon Hunter
Rating:
0/5 (0 votes)

Hard to play? Try these video lessons and learn fast.
                Band: Demon Hunter
Tunning: Drop B (B-F#-B-E-G#-C#)

Ok so the intro that was already here annoyed me becuase it was so wrong so I want to 
the intro the correct way and I will wright the whole tab for it but here is the correct intro
(NOTE: This is also noted as correct becuase I saw every note Ethan played live so this 
exactly Correct!)

v = Vibrato
^ = 1/2 step bend ONLY
* = Pinched Harmonic
(*v = vibrato applied to a pinched harmonic)
Intro
Guitar 1: Ethan - Lead
C#--5-----------5----------5----------------------|
G#-----5^-3-5-----5^-3-5-----5^-3-5---------------|
E------------------------------------5-4/5\4-2-4v-|
B-------------------------------------------------|
F#------------------------------------------------|
B-------------------------------------------------|

C#--5-----------5----------5-----------------------|
G#-----5^-3-5-----5^-3-5-----5^-3-5----------------|
E------------------------------------5-4/5\4-2-----|
B----------------------------------------------5*v-|
F#-------------------------------------------------|
B--------------------------------------------------|

Guitar 2: Don - Rythem (When Sliding up to the 14, strum it,
then slide down to the 3)
C#----------------------------------------------------|
G#----------------------------------------------------|
E-----------------------------------------------------|
B--7-7-7-7-7-10-10-10-10-10-/14-\-3-3-3-3-3-3-3-3-3-5-|
F#-7-7-7-7-7-10-10-10-10-10-/14-\-3-3-3-3-3-3-3-3-3-5-|
B--7-7-7-7-7-10-10-10-10-10-/14-\-3-3-3-3-3-3-3-3-3-5-| X2

Both Guitars:
C#--------------|
G#--------------|
E---------------|
B--7-7-7--7-7-7-|
F#-7-7-7--7-7-7-|
B--7-7-7--7-7-7-|
            
Hard to play? Try these video lessons and learn fast. | Correct




comments powered by Disqus
↑ Back to top | Tablatures and chords are parodies/interpretations of the original songs. You may use it for private study, scholarship, research or language learning purposes only