» » »

No Reason To Exist Tabs (ver.2)

Artists:  A B C D E F G H I J K L M N O P Q R S T U V W X Y Z # 

No Reason To Exist Tabs (ver.2)

Demon Hunter
Rating:
0/5 (0 votes)

Hard to play? Try these video lessons and learn fast.
                Im workin on the solo right now, but this is the rest of it. Enjoy.

Intro

Db------------------------------------------|
Ab------------------------------------------|
E--6----7-8-2---6----7-8-2--3333-3-3-4444-4-|
B--6----5-6-0---6----5-6-0--1111-1-1-2222-2-|
Gb-4----5-6-0---4----5-6-0--1111-1-1-2222-2-|
B--4----5-6-0---4----5-6-0--1111-1-1-2222-2-|

Verse Part 1

Db-----------------------------------------------|
Ab-----------------------------------------------|
E------------------------------------------------|
B----9---999---9----0-7h9----9---999---9---6-5-3-| X2
Gb-0-8-0-888-0-8-0--0-7h9--0-8-0-888-0-8-0-6-5-3-|
B--0---0-----0---0--0-7h9--0---0-----0---0-6-5-3-|

Verse Part 2

Db----------------------------------------------------------------------|
Ab----------------------------------------------------------------------|
E-----------------------------------------------------------------------|
B--0000000000000000-6666222277777777--4444444444444444-6666222277777777-|
Gb-0000000000000000-6666222277777777--4444444444444444-6666222277777777-|
B--0000000000000000-6666222277777777--4444444444444444-6666222277777777-|

Db-----------|
Ab-----------|
E--7777/8888-|
B--5555/6666-|
Gb-5555/6666-|
B--5555/6666-|

Chorus
Db-------------------------------|
Ab-------------------------------|
E--6----77/88-2--3333-3-3-4444-4-|
B--6----55/66-0--1111-1-1-2222-2-| X2
Gb-4----55/66-0--1111-1-1-2222-2-|
B--4----55/66-0--1111-1-1-2222-2-|

Bridge

Db------------------------|
Ab------------------------|
E----5------------5-------|
B--0-x-0--------0-x-0-797-| X3
Gb-0-3-0--------0-3-0-797-|
B--0---0--------0---0-797-|

Db------------------------|
Ab------------------------|
E----8------------8-------|
B--0-x-0--------0-x-0-797-|
Gb-0-6-0--------0-6-0-797-|
B--0---0--------0---0-797-|

That's the entire song, except for the solo. 

Here's the order

Intro
Verse Part 1
Verse Part 2
Chorus
Chorus
Break
Verse Part 1
Verse Part 2
Chorus 
Chorus
Bridge
Bridge
Chorus
Chorus
Chorus
Chorus
Repeat stuff as necessary
            
Hard to play? Try these video lessons and learn fast. | Correct




comments powered by Disqus
↑ Back to top | Tablatures and chords are parodies/interpretations of the original songs. You may use it for private study, scholarship, research or language learning purposes only