» » »

Demon Hunter, My Heartstrings Come Undone Tabs (ver.2)

Artists:  A B C D E F G H I J K L M N O P Q R S T U V W X Y Z # 

My Heartstrings Come Undone Tabs (ver.2)

Demon Hunter Tabs
 Rating:
4/5 (4 votes)
My Heartstrings Come Undone lessons Tabs too difficult? Try these video lessons and learn fast
                Here's the whole song. Took me a bit but I'd say it is almost perfect.



Guitar 1:
 E|---8-----8-----7-----7-----7-----7----------------||
 B|-8-----8-----8-----8-----7-----7--------8------8--||
 G|9-9---9-9---7-7---7-7---7-7---7-7-----9-----9-----||
 D|-------------------------------------7-7---7-7----||
 A|--------------------------------------------------||
 D|--------------------------------------------------|| 2x
Guitar 2 joins after first play of Guitar 1


Guitar 2:
 E|--------------------------------------------------||
 B|--------------------------------------------------||
 G|--------------------------------------------------||
 D|0000-3-2-0-5--------------------------------------||
 A|0000-3-2-0-5--------------------------------------||
 D|0000-3-2-0-5--------------------------------------||
        ^16 times for 3,2,0,5.


Guitar 2:
 E|---8-----8-----7-----7-----7-----7----------------||
 B|-8-----8-----8-----8-----7-----7--------8------8--||
 G|9-9---9-9---7-7---7-7---7-7---7-7-----9-----9-----||
 D|-------------------------------------7-7---7-7----||
 A|--------------------------------------------------||
 D|--------------------------------------------------|| 2x
After first play ^^^ Guitar 1 joins:


Guitar 1:
 E|---8-----8-----7-----7-----7-----7----------------||
 B|-8-----8-----8-----8-----7-----7--------8------8--||
 G|9-9---9-9---7-7---7-7---7-7---7-7-----9-----9-----||
 D|-------------------------------------7-7---7-7----||
 A|--------------------------------------------------||
 D|--------------------------------------------------||


Guitar 2:
 E|--------------------------------------------------||
 B|--------------------------------------------------||
 G|--------------------------------------------------||
 D|2222-333-0-0-5555--2222-333-5-5-0-0--10-0-2-5-----||
 A|2222-333-0-0-5555--2222-333-5-5-0-0--10-0-2-5-----||
 D|2222-333-0-0-5555--2222-333-5-5-0-0--10-0-2-5-----||
                                        ^2x each for 10,0,2,5 / 2x last part


Guitar 1:
 E|---8-----8-----7-----7-----7-----7----------------||
 B|-8-----8-----8-----8-----7-----7--------8------8--||
 G|9-9---9-9---7-7---7-7---7-7---7-7-----9-----9-----||
 D|-------------------------------------7-7---7-7----||
 A|--------------------------------------------------||
 D|--------------------------------------------------||


Guitar 2:
 E|--------------------------------------------------||
 B|--------------------------------------------------||
 G|--------------------------------------------------||
 D|2222-333-0-0-5555--2222-333-5-5-0-0---10-0-2-5----||
 A|2222-333-0-0-5555--2222-333-5-5-0-0---10-0-2-5----||
 D|2222-333-0-0-5555--2222-333-5-5-0-0---10-0-2-5----||
                                         ^8x each for 10,0,2,5 / 2x last part


Guitar 2:
 E|--------------------------------------------------||
 B|--------------------------------------------------||
 G|--------------------------------------------------||
 D|2-0-1-3-------10-0-2-5----------------------------||
 A|2-0-1-3-------10-0-2-5----------------------------||
 D|2-0-1-3-------10-0-2-5----------------------------||
   ^8x each-2x   ^8x each-this part- 4x played last part
 

Guitar 1 plays after 2nd time above^^^:
 E|---8-----8-----7-----7-----7-----7----------------||
 B|-8-----8-----8-----8-----7-----7--------8------8--||
 G|9-9---9-9---7-7---7-7---7-7---7-7-----9-----9-----||
 D|-------------------------------------7-7---7-7----||
 A|--------------------------------------------------||
 D|--------------------------------------------------||


Guitar 2:
 E|--------------------------------------------------||
 B|--------------------------------------------------||
 G|--------------------------------------------------||
 D|10---0---2---5---0--------------------------------||
 A|10---0---2---5---0--------------------------------||
 D|10---0---2---5---0--------------------------------||
   

¡Goce!
~Cuamz
            
Submit corrections

comments powered by Disqus
↑ Back to top | Demon Hunter Tabs for My Heartstrings Come Undone. Lyrics for acoustic guitar and electric guitar. Tablatures and chords are parodies/interpretations of the original songs. You may use it for private study, scholarship, research or language learning purposes only