» » »

Lifewar Bass tabs (ver.1)

Artists:  A B C D E F G H I J K L M N O P Q R S T U V W X Y Z # 

Lifewar Bass tabs (ver.1)

Demon Hunter
Rating:
5/5 (1 vote)

Hard to play? Try these video lessons and learn fast.
                ---------------------------------------------------------------------------
			     LIFEWAR – Demon Hunter
---------------------------------------------------------------------------



Tuning: standard 5-string (BEADG)

Verse
G|---|       G|-------------------|
D|---|       D|-------------------|
A|---| 1x    A|-------------------| 4x
E|---|       E|--------------3333-|
B|-2-|       B|2-2-2-2-2-2-2------|

Pre-chorus 
G|--------------|
D|--------------|
A|--------------|
E|--------------|
B|2-2-2-2-2-2-2-|

Chorus
G|---------------------------------|
D|---------------------------------|
A|---------------------------------|
E|---------------------------------|
B|-0-0-0-0-0-0-0-0-0-0-0-0-0-0-0-0-|

Verse
G|---|       G|-------------------|
D|---|       D|-------------------|
A|---| 1x    A|-------------------| 4x
E|---|       E|--------------3333-|
B|-2-|       B|2-2-2-2-2-2-2------|

Pre-chorus 
G|--------------|
D|--------------|
A|--------------|
E|--------------|
B|2-2-2-2-2-2-2-|

Chorus
G|---------------------------------|
D|---------------------------------|
A|---------------------------------|
E|---------------------------------|
B|-0-0-0-0-0-0-0-0-0-0-0-0-0-0-0-0-|

G|---------------------------------|
D|---------------------------------|
A|---------------------------------|
E|---------------------------------|
B|---0-0-0-0-0-0-0-0-0-0-0-0-0-0-0-|

G|---------------------------------|
D|---------------------------------|
A|---------------------------------|
E|---------------------------------|
B|-----------------0-0-0-0-0-0-0-0-|

===========================================================================
            
Hard to play? Try these video lessons and learn fast. | Correct




comments powered by Disqus
↑ Back to top | Tablatures and chords are parodies/interpretations of the original songs. You may use it for private study, scholarship, research or language learning purposes only