» » »

Demon Hunter, Less Than Nothing Tabs (ver.1)

Artists:  A B C D E F G H I J K L M N O P Q R S T U V W X Y Z # 

Less Than Nothing Tabs (ver.1)

Demon Hunter Tabs
 Rating:
4/5 (5 votes)
Less Than Nothing lessons Tabs too difficult? Try these video lessons and learn fast
                Tunning: B F# B E G# C#

There is no tab for this song on this site. 
But I've found it elsewhere and the tabs were really bad.
So I just did it myself.


Intro: (0:00)

I believe they do natural harmonics on the third and ninth fret.
But if anyone has noticed if you do it right it sounds just like a pinch. 
Its about the closest thing I can do to making the sound.


Guitar 1

C#|-------------------------------------------|
G#|-------------------------------------------|
E |-------------------------------------------|  x4
B |-------------------------------------------|
F#|--3--3--3--3--3--3--3--3--333-333-333-333--|
B |-------------------------------------------|


After the 2nd time I believe Guitar 2 does this.

Guitar 2

C#|-------------------------------------------|
G#|-------------------------------------------|
E |-------------------------------------------|  x2
B |-------------------------------------------|
F#|--9--9--9--9--9--9--9--9--999-999-999-999--|
B |-------------------------------------------|



Verse: (0:10)

This part comes in as the intro fades out.


Guitar 1 & 2

C#|-------------------------------------------|
G#|-------------------------------------------|
E |-------------------------------------------|  x5
B |-------------------------------------------|
F#|--000-000-000-000--0--0--0--0--0--0--0--0--|
B |--000-000-000-000--0--0--0--0--0--0--0--0--|



Bridge: (0:25)


Guitar 1 & 2

C#|-----------------------------------------------------------------|
G#|-----------------------------------------------------------------|
E |-----------------------------------------------------------------|  x4
B |-----------------------------------------------------------------|
F#|--2/3-3-------------2/3-3-------1--1---1-2/3-3-------------------|
B |--2/3-3-------------2/3-3-------1--1---1-2/3-3-------------------|

         ^^ Hard to hear exactly how many notes for each ^^



Chorus: (0:50)


Guitar 1 & 2

C#|-----------------------------------------------------------------|
G#|-----------------------------------------------------------------|
E |-----------------------------------------------------------------|  x4
B |-----------------------------------------------------------------|
F#|-6-6-6-6-6-6-6-6-6-6-6-6-6-6-6-6-2-2-2-2-2-2-2-2-4-4-4-4-4-4-4-4-|
B |-6-6-6-6-6-6-6-6-6-6-6-6-6-6-6-6-2-2-2-2-2-2-2-2-4-4-4-4-4-4-4-4-|



Second Verse: (1:17)


Guitar 1 & 2

C#|-------------------------------------------|
G#|-------------------------------------------|
E |-------------------------------------------|  x8
B |-------------------------------------------|
F#|--0--0--0--0--0--0--0--0--000-000-000-000--|
B |--0--0--0--0--0--0--0--0--000-000-000-000--|

After about 4 times the vocals cut out and they alternate the notes back and forth between speakers



Bridge: (1:43) x2


Transition high notes: (1:55)

Guitar 1 & 2

C#|------------|
G#|--17~--16~--|
E |------------|
B |------------|
F#|------------|
B |------------|


Chorus: (1:57) x4


Second Verse: (2:21) X8



Outro: (2:34)

C#|----------------------------------------------------------------------------------|
G#|-------14~--16~--14~-------14~--12~--11~-------14~--16~--14~-------19~--17~--16~--|
E |--13~-------------------------------------13~-------------------------------------|
B |----------------------14~-------------------------------------14~-----------------|
F#|----------------------------------------------------------------------------------|
B |----------------------------------------------------------------------------------|

This riff is a backing throughout the song. if you listen closely you can hear it.
Those notes are right, whether those are the right string and frets I have no idea. 
You can pretty much move them around accordingly.
            
Submit corrections

comments powered by Disqus
↑ Back to top | Demon Hunter Tabs for Less Than Nothing. Lyrics for acoustic guitar and electric guitar. Tablatures and chords are parodies/interpretations of the original songs. You may use it for private study, scholarship, research or language learning purposes only